Четверг, 21.09.2017, 18:40
| RSS
Главная |
Меню сайта

Rambler's Top100



    A Winters Tale Тип: басс табулатура


    ------------------------------------------------------------------------------
    A Winters Tale - Queen
    ------------------------------------------------------------------------------


    |---------------------------------------------------------------------------------1618--|
    |--------------8-9-11------------------------------------------------------7--7-7-------|
    |-15/9---11-13---------11---11-11---1110---10-10---109---9-9---9-9---9-9--9-------------|
    |-------------11------------------------------------------------------------------------|


    |-----------------------------------------------------------------------------------------------|
    |---6--8----------------------------------------7-----------------------------------------------|
    |-9--------6-------------------------------0---7---0-2--2-2-2-2-2-2-2-2-----------4--4-4--6--6-6|
    |-------------6-7-9/4--4-4--3--3-3--2--2-2---------------------------------0--0-0---------------|


    |------------1115----------------------------------18-18-18----------------------------------1--|
    |-4--4-4---------------------------------------------------------------------------1------------|
    |-------------------------------------------------------------41624----------1------1-2-4-------|
    |---------6--------611-11-11-11-11-11-11-11-11-11-11----------------------2--4------------------|

    |--1----------------------------------------------------------------------------------------------|
    |--------------------------------------------------------------4--4-4--------------1--1--1--2--1--|
    |---------------------0--0-0--2--2-2---------4--4-4---46--6-6------------------13/----------------|
    |4--4-3--3-3--2--2-2-----------------0--0-0----------4-----------------6--6-6-6-------------------|

    |--------------------------------------------------------------1113-13/--------------13-----------|
    |-----------------------------------------------------------------------6---------1113-13---------|
    |--------8-----------1--1-1--0---0-0--0-0----------------------------------2--2-2----------11--6--|
    |4--6-8-----8-9-11/------------------------4---4-4--4-4--4-4--4-----------------------------------|

    |--------16-----------|
    |------16-------------|
    |-2-------------------|
    |----------2--214-----|




    Дискография




    СТАТЬИ


    BY QUEEN INC © 2017