Четверг, 27.04.2017, 11:51
| RSS
Главная |
Меню сайта

Rambler's Top100



    All Dead All Dead Тип: табулатура


    intro
    ->0----------->6---10---12---13------------>-8---12---13----------
    ->1-----------<6--------------------10-----<10----------------10--
    -<2----------->7--------------------------->10--------------------
    ->3----------->8---------------------------<----------------------
    -------------8----------------------------->-8--------------------
    -----------6------------------------------------------------------

    --8-------8-10-----6-5----5----3----3----
    -11----11--------6---6----5----3----6----
    ----10---------7-----5----5----3----6----
    --8--------------------------------------
    -------------8---------------------------
    -----------------------------------------

    verse:
    ---1---------0-1-----------1-------3---1-----------
    ---3---3-2-----3-------3---3---3-2-----3-------3---
    -2-------2-------2---------2-----2---2---2---------
    ---0-----2-----0---3-0---0-0-----2-----0---3-0---0-
    --------(4)----------------------------------------
    ---------------------------------------------------

    ---1-----0----------1-------------0---1-------
    ---3-----1-----1------------------3-2-3-------
    ---2-----0-----2------------3---0-2---2-------
    ---0---0----------3-----3---5-----------0-----
    ---------3---3--------------------0-----------
    ---------------1------1---1-3-----------------


    chorus
    -------------------------------1-----0---1-----------
    -----------------1-------1-----3-----1---1-----------
    -0---2-------3---2-------2-----3-----3---2-----------
    -2---3-------5---3-------3---------------3-------3---
    -3---3-----------0-------------1-----3-----3-0-------
    -0---1-------3-----------1---------------------1---1-


    -1-----0-----1-----1---1--------------------------------------------------
    -1-----1-----3-----1---3-----------------------------------1-------1-----
    -2-----0-----2-----2---3-------------------0---2-------3---2-------2-----
    -3---3-2---2-0-----------------------0-----2---3-------5---3-------3-----
    -------------------3-----1-----3-----------3---3-------------0-----------
    -------------------------------------------------1-----3-----------1-----


    -1-----0---1------------1-----0-----1-----1-----1----
    -3-----1---1------------1-----2-----3-----1-----3----
    -3-----3---2------------2-----0-----2-----2-----3----
    -------------3------3---3---3-------0----------------
    -1-----3------3-0-------------0---0-------3-----1---- F, B, ...
    ------------------1---1------------------------------


    Solo
    ---------------------1-----1---------------------------------------------
    ---------------------3-----3-----------------3-----5-----6----8-----5----
    ---------------------3-----2-----------------4-----6-----7----9-----6----
    ---------------------------0-----0-----0-----0---------------------------
    ...1-----1-----1-----1-----------------------------0-----0----0-----0----
    -------------------------------------------------------------------------


    -------------------------------------3------------------------5----
    -7-----8----10-----3-----5-----6-----5-----5-----6------8-----6----
    -6-----9----10-----4-----6-----7-----6-----6-----7------9-----7----
    -------------------------------------------------0------0-----0----
    -0-----0-----0-----0-----0-----0-----0-----0-----------------------
    -------------------------------------------------------------------


    F, B/F, C/F, F


    -3-----5-6-----6-----5-----5-----3-----3---
    -3-----5-6-----6-----6-----5-----3-----2---
    -3-2-0-5-7-----5-----5-----5-----3-----0---
    -0-------------5-----------------0-----3---
    -------7-8-----------------------------0---
    -------------------------------------------
    (arrangement, not transcription!)

    ...


    end:
    -----------1-
    -------------
    -----2-------
    ---3-----3---
    -------3-----
    -1-----------




    Дискография




    СТАТЬИ


    BY QUEEN INC © 2017