Пятница, 22.09.2017, 21:54
| RSS
Главная |
Меню сайта

Rambler's Top100



    All Dead All Dead Тип: басс табулатура


    Song:All Dead, All Dead
    Band: Queen


    :06 Verse 5x :20 Riff 1
    F|----------------|--------------------------------------------------|
    C|----------------|--------33333333----------------------------------|
    G|----------------|22222222--------0000000-0202-2-1-0-1-2--3--2--1-0-|
    C|0---2-0202022--0|--------------------------------------------------|

    :36 Verse 3x :45 Riff 1
    F|----------------|--------------------------------------------------|
    C|----------------|--------33333333----------------------------------|
    G|----------------|22222222--------0000000-0202-2-1-0-1-2--3--2--1-0-|
    C|0---2-0202022--0|--------------------------------------------------|

    1:26 1:26 Verse 3x
    F|----|----------------|---------------------------------------------------|
    C|----|----------------|--------33333333-----------------------------------|
    G|0202|----------------|22222222--------00000000-0202-2-1-0-1-2--3--2--1-0-|
    C|----|0---2-0202022--0|---------------------------------------------------|

    2:56 Verse 12x
    F|-----------------|
    C|-----------------|
    G|-----------------|
    C|0---2-0202022--0-|




    Дискография




    СТАТЬИ


    BY QUEEN INC © 2017