Вторник, 25.07.2017, 09:40
| RSS
Главная |
Меню сайта

Rambler's Top100



    Be Friends Тип: басс табулатура


    FRIENDS WILL BE FRIENDS BY QUEEN OFF THE "A KIND OF MAGIC" ALBUM

    TUNEING IS G,D,A,E

    PLEASE RATE *****

    SONG VERY HARD TO PLAY + TAB


    |--------------------------------------------4----------------------------|
    |5--5---2--2-23-5--5----02-3-3-----5---4--2-----5---5-7-7-----------------|
    |-----2---------------3--------3-3----------------3-------5--55--55--0555-|
    |-------------------------------------------------------------------------|

    |-------------------------------------------------------------------------|
    |5--------2---235---5-7-------7-------------------------------------------|
    |---5-2------------5----7-0--7-5-55-55-555553--334--44--257--7-5--576--66-|
    |---------------------------------------------3---------------------------|

    |-----------------------5--------------------------------------------------|
    |---------------------5-------------------------------2--2-2---------------|
    |7----6---5---4---3-------3---5----5/15/5------0-2--3-------2-----02-3---0-|
    |--------------------------535-----------3--3-3--------------3--3----------|

    |--------------4-----5---5-4-----------------------------------------------|
    |3----5--4--------4-5-------7----7------------4----------42--245--5--------|
    |---3-------7----5-------------0-5-55-55-5555------02--2--------5-5-----3--|
    |---------------------------------------------3--3------------------5------|

    |------------------------------------------------8--------------------------|
    |----------------------5--2--24---------------------------------------------|
    |5--555/12/5/03--334-4----------5--556--7---6---5--5--4--4--3--3-333--3-----|
    |-----------------------------------------------------------------------535-|

    |---------------------------------------------------------4-----------2---2-|
    |------------------------------------------5-----4---542------5-----2----2--|
    |5------5/17/5-------3----1---------3---1------5-------------5--3-----------|
    |-------------3---1-----------3--1------------------------------------------|

    |----------------------------------------------------------------------------|
    |---------------------------5/7------7-7-----------------------5---54----9/5-|
    |55-55-5555--------------------7-7--7-5-55-55-555553-3334--4-44------7-------|
    |----------23---3/-7-750--023---5--------------------------------------------|

    |----------------------------------------------------------------------------|
    |-----------9--------------------------------------------5/7/0---------------|
    |5-5-6--6-7--76--6-665-5-5-5544444/10/43-3-3-3-3-3-33335-------3--3-334-4-44-|
    |----------------------------------------------------------------------------|

    |------------------------9--8-88------------------------------------------|
    |-----52-2----------------------------------------------------------------|
    |----5-----5-5-556--6-667--------5--4--3---3-3--3---5--555555553--334--44-|
    |3-3---------------------------------------------535----------------------|

    |--------------------------------------------------------------5------------|
    |5------------------------------------------------------------5-------------|
    |-5-7-7-7-5-5-556-6-66777777--666666665--55444444443--3-3-3--3--5--5-5-5-55-|
    |----7-7--------------------------------------------------------------------|

    |----------------------------------------4--------------------------------|
    |------------5-------------------------5----6-----------------------------|
    |3--3-3-4--44---5-57--7--75--556--6667---------665---5554---3---3-3-3-3-5-|
    |----------------7---7--7-------------------------------------------------|




    Дискография




    СТАТЬИ


    BY QUEEN INC © 2017