Понедельник, 23.10.2017, 14:32
| RSS
Главная |
Меню сайта

Rambler's Top100



    Bijou Тип: табулатура


    part one
    |---------------t22p15t22p17t22p18t22p17t22p15---------------|
    |-15t22p17t22p18------------------------------t22p18t22p17t22p
    |------------------------------------------------------------|
    |------------------------------------------------------------|
    |------------------------------------------------------------|
    |------------------------------------------------------------|

    |--------------t22p15t22p17t22p18t22p17_v_\--|
    p15t22p17t22p18------------------------------|
    |--------------------------------------------|
    |--------------------------------------------|
    |--------------------------------------------|
    |--------------------------------------------|

    |-----------------______----------------------------------------------------|
    |-10__/15--17--18_/20b22--b22_v_r20_\-----b20__r-18--16---------------------|
    |--------------------------------------------------------15--b19___r17__\---|
    |---------------------------------------------------------------------------|
    |---------------------------------------------------------------------------|
    |---------------------------------------------------------------------------|

    |---------17--18--20__v_--18-17---------------------------------------|
    |-18--20------------------------20-18-20-b22_v__--20-18-17-18-echo----|
    |---------------------------------------------------------------------|
    |---------------------------------------------------------------------|
    |---------------------------------------------------------------------|
    |---------------------------------------------------------------------|

    |------------------------------------------________---|
    |---------17--18--20--b22_v__r20-18--17-18-17b18r17---|
    |-----19----------------------------------------------|
    |-19--------------------------------------------------|
    |--(0)------------------------------------------------|
    |-----------------------------------------------------|

    |--------17-18-20-20b22_v__\---/22b24-----b24--b24___r22__\\-----|
    |-----20---------------------------------------------------------|
    |-19-------------------------------------------------------------|
    |----------------------------------------------------------------|
    |----------------------------------------------------------------|
    |----------------------------------------------------------------|

    |--------------------------------------------------|
    |-10_/15t2215t22p15t22p17t22p18/20b22__b23r22r20---|
    |--------------------------------------------------|
    |--------------------------------------------------|
    |--------------------------------------------------|
    |--------------------------------------------------|

    |-----------------------------------15-17-15-17-18-17-18-20-20b21__|
    |-18b20--b20-b20-b20-b20__r18-16-18--------------------------------|
    |------------------------------------------------------------------|
    |------------------------------------------------------------------|
    |------------------------------------------------------------------|
    |------------------------------------------------------------------|

    |_r20p18-20b21__r20p18-20b21---20-----18--22b24__v_|
    |--------------------------------------------------|
    |--------------------------------------------------|
    |--------------------------------------------------|
    |--------------------------------------------------|
    |--------------------------------------------------|


    part two
    |----------------------------------------------------------------------------|
    |-10_/15--16--18-/20b22--b22___r20-----18b20___r18--16------15__b16r15-------|
    |-------------------------------------------------------15-------------17__\-|
    |----------------------------------------------------------------------------|
    |----------------------------------------------------------------------------|
    |----------------------------------------------------------------------------|

    |---t20p13t20p15t20p17t20p13t20p15t20p17t20p18t20p15t20p17t20p18-b20v__\-|
    |-13---------------------------------------------------------------------|
    |------------------------------------------------------------------------|
    |------------------------------------------------------------------------|
    |------------------------------------------------------------------------|
    |---------------------------------------------------------------------(0)|

    |-20b22___r20-18-17---------------------------|
    |-------------------20-18-17------------------|
    |----------------------------19-17-19b21__v_\-|
    |---------------------------------------------|
    |---------------------------------------------|
    |---------------------------------------------|

    |----10-------------------________---------__________-----------|
    |-10----10-13b15----13-10-8b10r8p6-8-6\5-6-5h6p5-5--------------|
    |-----------------------------------------------7-7p5-7b9__\\---|
    |---------------------------------------------------------------|
    |---------------------------------------------------------------|
    |---------------------------------------------------------------|

    |-15--17--18--20--20b22__\--22b24----b24----b24_b25_r22v---|
    |----------------------------------------------------------|
    |----------------------------------------------------------|
    |----------------------------------------------------------|
    |----------------------------------------------------------|
    |----------------------------------------------------------|

    |------------------------------------------------|
    |-10_/15-15--17--18--/20b22--b22___b23r22r20__\--|
    |------------------------------------------------|
    |------------------------------------------------|
    |------------------------------------------------|
    |------------------------------------------------|

    |-----------------------18__v_\-------18-20v__\---b24_v_\----|
    |-18b20----20r18--16----------------19-----------------------|
    |--------------------15-----------18-------------------------|
    |------------------------------------------------------------|
    |------------------------------------------------------------|
    |------------------------------------------------------------|




    Дискография




    СТАТЬИ


    BY QUEEN INC © 2017