Четверг, 21.09.2017, 18:52
| RSS
Главная |
Меню сайта

Rambler's Top100



    Body Language Тип: басс табулатура


    Title: Body Language
    Artist: Queen
    Written by: Freddie Mercury
    Album: Hot Space (1982)


    Transcribed by: Niek Lucassen (innuendo65@hotmail.com)
    Transcribed at: November 08, 2001 12:55 PM

    0:00
    G|------------------------------------------------------|
    D|------------------------------------------------------|
    A|----------4-----6-----4-----6-----4------8--6--4-6-4-6|
    E|--0-0-4-6-----6-----4-----6-----4-----6---------------|


    G|------------------------------------------------------|
    D|------------------------------------------------------|
    A|----------4-----6-----4-----6-----4------8--6--4-6-4-6|
    E|--0-0-4-6-----6-----4-----6-----4-----6---------------|

    0:14 give me...
    G|----------------------------------------------------------------|
    D|----------------------------------------------------------------|
    A|----------------------------------------------------------------|
    E|--6-3-0---6-3-0---6-3-0---6-3-0---6-3-0---6-3-0---6-3-0---6-3-0-|

    body... give me...
    G|----------------------------------------------------------------|
    D|----------------------------------------------------------------|
    A|----------------------------------------------------------------|
    E|--4-1-0---4-1-0---4-1-0---4-1-0---6-3-0---6-3-0---6-3-0---6-3-0-|

    body... give me...
    G|----------------------------------------------------------------|
    D|----------------------------------------------------------------|
    A|----------------------------------4-1-0---4-1-0---4-1-0---4-1-0-|
    E|--4-1-0---4-1-0---4-1-0---4-1-0---------------------------------|

    your body... don't talk... baby don't talk
    G|---------------------------------------------------------------------|
    D|---------------------------------------------------------------------|
    A|--2------2------2------2----------6-4--6-4--6-4--6-4----6----4-----6-|
    E|----4-2----4-2----4-2----4-2-----------------------------------------|


    0:47
    body language..body language...body language
    G|----------------------------------------------------------------------------------------------|
    D|----------------------------------------------------------------------------------------------|
    A|----------------------------------------------------4----6-----4-----6-----4----8--6--4-6-4-6-|
    E|--------------------------------------------0-0-4-6----6-----4-----6-----4----6---------------|


    1:03 give me
    G|----------------------------------------------------------------|
    D|----------------------------------------------------------------|
    A|----------------------------------------------------------------|
    E|--6-3-0---6-3-0---6-3-0---6-3-0---6-3-0---6-3-0---6-3-0---6-3-0-|


    your body just give me yeah
    G|----------------------------------------------------------------|
    D|----------------------------------------------------------------|
    A|----------------------------------------------------------------|
    E|--4-1-0---4-1-0---4-1-0---4-1-0---6-3-0---6-3-0---6-3-0---6-3-0-|


    your body give me yeah
    G|----------------------------------------------------------------|
    D|----------------------------------------------------------------|
    A|----------------------------------4-1-0---4-1-0---4-1-0---4-1-0-|
    E|--4-1-0---4-1-0---4-1-0---4-1-0---------------------------------|

    your body
    G|---------------------------------------------------------------------|
    D|---------------------------------------------------------------------|
    A|--2------2------2------2----------6-4--6-4--6-4--6-4----6----4-----6-|
    E|----4-2----4-2----4-2----4-2-----------------------------------------|

    Don't talk
    Body language (huh huh)
    Body language
    Body language


    1:45
    G|------------------------------------------------------|
    D|------------------------------------------------------|
    A|----------4-----6-----4-----6-----4------8--6--4-6-4-6|
    E|--0-0-4-6-----6-----4-----6-----4-----6---------------|


    G|----------------------------------------------------------------|
    D|----------------------------------------------------------------|
    A|----------------------------------------------------------------|
    E|--6-3-0---6-3-0---6-3-0---6-3-0---6-3-0---6-3-0---6-3-0---6-3-0-|


    G|----------------------------------------------------------------|
    D|----------------------------------------------------------------|
    A|----------------------------------------------------------------|
    E|--4-1-0---4-1-0---4-1-0---4-1-0---6-3-0---6-3-0---6-3-0---6-3-0-|


    G|----------------------------------------------------------------|
    D|----------------------------------------------------------------|
    A|----------------------------------------------------------------|
    E|--4-1-0---4-1-0---4-1-0---4-1-0---6-3-0---6-3-0---6-3-0---6-3-0-|


    G|----------------------------------------------------------------|
    D|----------------------------------------------------------------|
    A|----------------------------------4-1-0---4-1-0---4-1-0---4-1-0-|
    E|--4-1-0---4-1-0---4-1-0---4-1-0---------------------------------|


    G|---------------------------------------------------------------------|
    D|---------------------------------------------------------------------|
    A|--2------2------2------2----------6-4--6-4--6-4--6-4----6----4-----6-|
    E|----4-2----4-2----4-2----4-2-----------------------------------------|


    2:25
    G|---------------------------------------------------------------------|
    D|-----4-6--------------4-6--------------4-6--------------4-6----------|
    A|---6---------2-4----6---------2-4----6---------2-4----6---------2-4--|
    E|-----------4----------------4----------------4----------------4------|


    G|---------------------------------------------------------------------|
    D|-----4-6--------------4-6--------------4-6--------------4-6----------|
    A|---6---------2-4----6---------2-4----6---------2-4----6---------2-4--|
    E|-----------4----------------4----------------4----------------4------|


    G|-------------------------------------------|
    D|-----4-6--------------4-6--------------4-6-|
    A|---6---------2-4----6---------2-4----6-----|
    E|-----------4----------------4--------------|


    3:05
    G|----------------------------------------------------------------|
    D|----------------------------------------------------------------|
    A|----------------------------------------------------------------|
    E|--6-3-0---6-3-0---6-3-0---6-3-0---6-3-0---6-3-0---6-3-0---6-3-0-|


    G|----------------------------------------------------------------|
    D|----------------------------------------------------------------|
    A|----------------------------------------------------------------|
    E|--4-1-0---4-1-0---4-1-0---4-1-0---6-3-0---6-3-0---6-3-0---6-3-0-|


    G|----------------------------------------------------------------|
    D|----------------------------------------------------------------|
    A|----------------------------------------------------------------|
    E|--4-1-0---4-1-0---4-1-0---4-1-0---6-3-0---6-3-0---6-3-0---6-3-0-|


    G|----------------------------------------------------------------|
    D|----------------------------------------------------------------|
    A|----------------------------------4-1-0---4-1-0---4-1-0---4-1-0-|
    E|--4-1-0---4-1-0---4-1-0---4-1-0---------------------------------|


    G|---------------------------------------------------------------------|
    D|---------------------------------------------------------------------|
    A|--2------2------2------2----------6-4--6-4--6-4--6-4----6----4-----6-|
    E|----4-2----4-2----4-2----4-2-----------------------------------------|


    3:38
    G|------------------------------------------------------|
    D|------------------------------------------------------|
    A|----------4-----6-----4-----6-----4------8--6--4-6-4-6|
    E|--0-0-4-6-----6-----4-----6-----4-----6---------------|


    G|------------------------------------------------------|
    D|------------------------------------------------------|
    A|----------4-----6-----4-----6-----4------8--6--4-6-4-6|
    E|--0-0-4-6-----6-----4-----6-----4-----6---------------|


    G|----------------------------------------------------------------|
    D|----------------------------------------------------------------|
    A|----------------------------------------------------------------|
    E|--6-3-0---6-3-0---6-3-0---6-3-0---6-3-0---6-3-0---6-3-0---6-3-0-|


    G|----------------------------------------------------------------|
    D|----------------------------------------------------------------|
    A|----------------------------------------------------------------|
    E|--6-3-0---6-3-0---6-3-0---6-3-0---6-3-0---6-3-0---6-3-0---6-3-0-|


    G|----------------------------------------------------------------|
    D|----------------------------------------------------------------|
    A|----------------------------------------------------------------|
    E|--6-3-0---6-3-0---6-3-0---6-3-0---6-3-0---6-3-0---6-3-0---6-3-0-|


    G|----------------------------------------------------------------|
    D|----------------------------------------------------------------|
    A|----------------------------------------------------------------|
    E|--6-3-0---6-3-0---6-3-0---6-3-0---6-3-0---6-3-0---6-3-0---6-3-0-|


    Fade out>>>>>>>>>>>
    G|----------------------------------------------------------------|
    D|----------------------------------------------------------------|
    A|----------------------------------------------------------------|
    E|--6-3-0---6-3-0---6-3-0---6-3-0---6-3-0---6-3-0---6-3-0---6-3-0-|




    Дискография




    СТАТЬИ


    BY QUEEN INC © 2017