Среда, 13.12.2017, 06:39
Привет!Гость | RSS
Главная | | Регистр | Вход
Меню сайта



Bohemian Rhapsody1
 
#----------------------------------PLEASE NOTE---------------------------------#
#This file is the author's own work and represents their interpretation of the #
#song. You may only use this file for private study, scholarship, or research. #
#------------------------------------------------------------------------------#
#

Bohemian Rhapsody

Words and music by Freddie Mercury

Transcribed by And Aledort for GFPM, July 1991

N.C.
Is this real life Is the just fantasy?

Caught in a landslide, no escape from reality.

Gm
Open your eyes
Bb Eb
Look up to the skies and see
Cm(7) F
I'm just a poor boy, I need no sympathy
B Bb A Bb B Bb A Bb
easy come, eays go, little high, little low (bass enters)
Eb Bb/D C#dim F7/C F7/Eb Bb
Any way the wind blows, doesn't realy matter to me to me.

Bb Gm
Mama just killed a man
Cm Cm7 F
put a gun against his head, pulled my trigger, now he's dead
Bb Gm Cm G+5/B Eb/Bb Adim
Mama life had just begun, but now I've gone and thrown it all away
Eb Bb/D Fm C/E Ab/Eb Ddim Bb Bb6 Bb7
Mama Oooo didn't mean to make you cry, if I'm not back again this time
Eb
tomarrow,
Bb/D Cm Abm Eb Ab/Eb Eb Cdim Bb7sus4b9 Bb
Carry on, carry on as if nothing really matters.
Gm
Too late, my time has come
Cm Cm7 F
Sent shivers down my spine, body's achin' all the time,
Bb Gm
Goodbye everybody, I've got to go,
Cm G+5/B Eb/Bb Adim Abmaj7 Eb/G
Gotta leave you all behind and face the truth.
Eb Bb/D Cm Fm C/E Ab/Eb Ddim Bb Bb6 Bb7
Mama Ooo I don't want to die, I sometimes wish I'd never been born at all.

(guitar solo)

--------------------------------------------------------
----------------------------11vvvvv---8--11>(12)vvvvvv--
------------10>(12)==>10>8------------------------------
--8vvvvvv-----------------------------------------------
--------------------------------------------------------
--------------------------------------------------------


---------------------------------------------------13-15-16-18-18>(20)vvvv----
--13vvvv--15-16-13vvv--15--16--16>(18)vvvvvv>16-13----------------------------
------------------------------------------------------------------------------
------------------------------------------------------------------------------
------------------------------------------------------------------------------
------------------------------------------------------------------------------


---18\16-16--15--18---15>16>15-----15-----------------------------------------
--------------------------------18-----18--16--15--16--15>16>15----15---------
----------------------------------------------------------------17----17--15--
------------------------------------------------------------------------------
------------------------------------------------------------------------------
------------------------------------------------------------------------------


--------------------------15--16--18vvvv(18)\-------------------15-16-18--20vv-
-------------15--16--18--------------------------------15-16-18----------------
--15---17---------------------------------------15--17-------------------------
-------------------------------------------------------------------------------
-------------------------------------------------------------------------------
-------------------------------------------------------------------------------

---------------------------------------------------------------------------
--15--16--13vvvv---15--16--13vvv--15--16--16>(18)vvvvvv--------------------
----------------------------------------------------------10--12--12>(13)--
---------------------------------------------------------------------------
---------------------------------------------------------------------------
---------------------------------------------------------------------------


---13-----------------------------------------------------------
------------------14---14-14-14-14vvvv-14\7---------------------
------13vvvvvvv--------------------------------6--6vvvvv--------
------------------------------------------------------------7---
----------------------------------------------------------------
----------------------------------------------------------------

D/A A Adim A D/A A Adim
I see a little silhouetto of a man
A D/A A D/A A Adim A D/A A
Scarmouch Scarmouch will you do the fandango?
C#/G# G# C#/G# G# C/G E7 A
Thunder bolts and lightening very very frightening me
N.C.
Galileo Galileo Galileo Galileofigaro Mangnifico oh oh oh
B Bb A Bb B Bb A Bb
I'm just a poor boy nobody loves me
Ab/Eb Eb Ebdim Eb Ab/Eb Eb Ebdim Eb
He's just a poor boy, from a poor family
Ab Eb/G F7 Bb
spare him his life from this monstrosity

Ab/Eb Eb Cdim Bb7sus4b9

B Bb A Bb B Bb Bbdim
Easy come easy go will you let me go?
Bb5 Eb Bb5 Eb Bbsus4 Bb Bbsus4 Bb
Bismillah NO, we will not let you go

Let him go
Bb Eb Bb Bbsus4 Bb Bbsus4 Bb
Bismillah we will not let you go Let him go
Bb Eb Bb Bbsus4 Bb Bbsus4 Bb
bismillah we will not let you go Let me go
Bbsus4 Bb Bbsus4 Bb Bbsus4 Bb Bbsus4 Bb
will not let you go let me go will not let you go

let me go oh oh oh oh oh
A5 D Db Gb Bb5 Eb5 Eb Ab Eb N.C. Bb
no no no no no no no Oh mamamia mamamia mamamia let me go
Eb Ab D7 Gm Bb5
Beelzebub has a devil put aside for me for me for me



----------------------------------------------------
----------------------------------------------------
----------------------------------------------------
----------------------------------------------------
-------------3---5---6---6-----------3-----------6--
--3---4---6----------------3---4---6----6vvvvvv-----


--------------------------------------------------------------------
--------------------------------------------------------------------
-------------------------------------------------------------8--8---
---------------------------------------------------8---------8--8---
-------------3---5---6---8-----------5-------------8---------6--6---
--3---4---6----------------5---6---8----6----6-----6----------------


--------------------------------------------------------------------
--------------------------------------------------------------------
----------------------------------------6vvvvvvv0-------------------
--8------8\3/8vvvv---6---8--6--------------------------8--------8\--
--8-----------------------------8----4-----------------8------------
--6----------------------------------------------------6---------0--


-----------------------------------------------------------------------------
--------------------------4----3-----------------3---------------------------
--------------------------5----3-----------------3---------------------------
---3----------------------6----5----3------------3--3>5---3------------------
---1------1/6--6--6--6>0--6----5----3------------1-----------5>3----------3--
--------------------------4----3----1-------1>0--------------------1---------


-----------------------------------------------------------------
---3---3---------------------------------------------------------
---3---3---------------------------------------3-------------3---
---3---3-----------3-----5>3-------------------3-------------3---
---1---1---3--3/5-------------5\---------------1-------------1---
-----------------------------------1-----1>0---------1-----------


---------------------------------------------------------
---------------------------------------------------------
---------------------------------------------------------
---------------------------------------------------------
--6---------------3---5---6---6-------------3------------
-----3---4----6-------------------3---4---6----6vvvvvv---


----------------------------------------------------------------------------
----------------------------------------------------------------------------
-----------------------------------------------------------------------5vvv-
------------------------------------------------------6---8vvv---6--8-------
--6------------3--5--6---8-------------5---7---8---9------------------------
-----3---4---6--------------5---6---8---------------------------------------


-----------------------------------------------------
-----------------------------------------------------
------------5----6--------------------6----6--8--9---
---8vvvvv--------------------6---8--9----9-----------
---------------------6>7--9--------------------------
-----------------------------------------------------


----------------------------------------------
----------------------------------------------
-------------------------------------3vvvvv---
------------------3--4--4>3---4---6-----------
-------3---4---6------------------------------
---4>6----------------------------------------


w/ harmonizer(8va basso)

----------------------------------------------
---------------------------------------8---9--
----------7-------7---8---10---8---10---------
--8---10-----10-------------------------------
----------------------------------------------
----------------------------------------------


hamonizer out. guitar tacet. piano fill.


guitar

-----------------------------------------------------------------
--------8----11vvvvvvvvvvvv-------------11-----------8----13\9---
-----8----------------------------7--10------------8-------------
--8----------------------------8----------------10---------------
-----------------------------------------------------------------
-----------------------------------------------------------------


--------------------------------------------------------------------
---8---8---8-----9--8------6-----8>9---8------10>11---10\3--3vvvv---
---7---8---7----10--8------7-----8>10--8------10>12---11\7--7vvvv---
--------------------------------------------------------------------
--------------------------------------------------------------------
--------------------------------------------------------------------


Cm Gm Cm Gm
Nothing really matters, anyone can see
Cm AbM Ab/Bb Eb Ab/Eb Eb
nothing raelly matters, nothing really matters to me

Ebdim Bb/D Dbmaj13 C Dbdim C F

Bb F Fdim C7sus4 F
Any way the wind blows

----------
Queen: Bohemian Rhapsody
Freddie Mercury /1975/

2'25" two gtrs arr. for one
|------------|----------------------------------|----|
|------------|----------------------------------|----|
|------------|-8-------5----10------------------|-0/-|
|------------|-8-------5----10-------------8----|-/0-|
|------------|-6----5--3-----8----7-6--5---8----|----|
|-5----4--3--|-----------------------------6----|----|

|----------------------------------------------------------------------|
|----------------------------------------------------------------------|
|-8--------------------5--------------------------6-----------------2--|
|-8--------------------5--------------------------6-----6-5-4---3---2--|
|-6----5---3vv---------3----3-1-----8----7-6--5---4-----4-3-2---1---0--|
|--------------4-3-2-3----------3-1------------------------------------|

solo
|-------------------------------------------------------------------------|
|------------------11v---8---11b13vv------13v---15-16-13v---15-16-b18v----|
|-----10b12__r10p8---------------------(xx)-------------------------------|
|-8-----------------------------------------------------------------------|
|-------------------------------------------------------------------------|
|-------------------------------------------------------------------------|
______
|----------------15--16--18--b20v-----18--16--15-16-15h16p15----|
|------------18----------------------------------------------18-|
|--------17-----------------------------------------------------|
|---x-17--------------------------------------------------------|
|---------------------------------------------------------------|
|---------------------------------------------------------------|

|-15-------------________-------------------|
|----18-16-15-16-15h16p15----15-------------|
|-------------------------17----17-15-15v---|
|-------------------------------------------|
|-------------------------------------------|
|-------------------------------------------|

|------------------15-16-18-------------------15-16-18--b20v--|
|---------15-16-18-------------------15-16-18-----------------|
|--15--17----------------------15-17--------------------------|
|-------------------------------------------------------------|
|-------------------------------------------------------------|
|-------------------------------------------------------------|

|------------------------------------------------------13----------|
|-15-16-13v---15-16-13v---15-16-b18vv------------------------------|
|----------------------------------------10-12-b13v----------b13v--|
|------------------------------------------------------------------|
|------------------------------------------------------------------|
|------------------------------------------------------------------|

|-9-9-9__\2-------------|
|----------2___h3p2p0---|
|--------------------2--|
|-----------------------|
|-----------------------|
|-----------------------|

4'7" two gtrs arr. for one
|-----|-----------------------------------------------------------------------|
|-----|-----------------------------------------------------------------------|
|-----|-----------------------------------------------------------------------|
|-8---|-----------------------------------------------------------------------|
|-8---|-6---------------3-5-6---6-------------3-------6---------------3-5-6---|
|-6---|-----3---4---6---------------3---4---6---6---------3---4---6-----------|

|--------------------|
|--------------------|
|--------------------|
|--------------------|
|-8-------------5----|
|-----5---6---8---8--|



|-------------------------------------------------------------------------|
|-------------------------------------------------------------------------|
|-------8--8----------------------6v-------------8--8--8------------------|
|-8-----8--8--8---8---6-8-6------------8----8----8--8--8--6---------------|
|-8-----6--6--8-------------8----------8----8----6--6--6--6---------------|
|-6-----6--6--6---------------9--------6----6-------------4----4--3--1----|

|-----------------|
|-----------------|
|-3---------------|
|-3---3h5--3------|
|-1-----------5-3-|
|-----------------|

|-------------------------------------------|
|-------------------------------------------|
|------3-----------------------3---------3--|
|------3--------3-5p3----------3---------3--|
|------1----4h5-------5p3------1---------1--|
|-1-----------------------1---------1-------|

|-----------------------------------------------------------------------|
|-----------------------------------------------------------------------|
|-----------------------------------------------------------------------|
|-----------------------------------------------------------------------|
|-6---------------3-5-6---6-------------3-------6---------------3-5-6---|
|-----3---4---6---------------3---4---6---6---------3---4---6-----------|

|----------------------------------------------------------------|
|----------------------------------------------------------------|
|----------------------------------------------------------------|
|-------------------------5-7-8---7-8-10---8-10-11---------------|
|-8---------------5-7-8------------------------------------------|
|-----5---6---8-------------------------------------7----4----6--|

4'51" middle right
|-----------------------|-------------------------|
|-----------------------|-------------------------|
|-------------6---6-8-9-|-------------------------|
|-------6-7-9---9-------|-------------------6-8-8-|
|-6-7-9-----------------|---------6-8-9-8-9-------|
|-----------------------|-8-6-8-9-----------------|

left
|----------------------------------|
|----------------------------------|
|----------------------------------|
|------------------------------8---|
|-----------------8----8-10-11-8---|
|-10-8-10-8-10-11---11---------6---|

left right left
|-------3-6-|---------6-|----------------|
|-x---4-----|-------6---|--------8-b13v--|
|---3-------|-7---7-----|-8----8---------|
|-----------|---8-------|---10-----------|
|-6---------|-5---------|-4--------------| <- two gtrs arr for one
|-----------|-----------|----------------|

three gtrs arr. for one 5'9"
|------------------------| |------------------------------|
|-8----8----8~9----9-8---| <-right /->|-6---8h9p9-----8-11-10___\3---|
|-7----8v---7-----10-8---| <-left---/ |-7---8h10p8---10-12-11___\8---|
|------------------------| |------------------------------|
|-2----3----2------5-3---| <-two gtrs-->|-1--------6----------5--------|
|------------------------| |------------------------------|

5'10"
|-//15-14---15-17-17b18v__\8--8/10\6--/8--8/10\6----|
|-----------17-19-19b20v__\9--9/11\8---8----11\8----|
|-//15-14-------------------------------------------|
|---------------------------------------------------|
|---------------------------------------------------|
|---------------------------------------------------|

5'39" right left /finger picked/
|------------------|-----------------------|
|-11\9---9\8---8v--|-8\5-------------------|
|------------------|-------5\3__\2__/10vv--|
|------------------|-----------------------|
|------------------|-----------------------|
|------------------|-----------------------|

Transcribed by Pinter Denes

Lyrics:

Is this the real life?
Is this just fantasy?
Caught in a landslide,
No escape from reality.
Open your eyes, Look up to the skies and see,
I'm just a poor boy, I need no sympathy,
Because I'm easy come, easy go, Little high, little low,
Any way the wind blows doesn't really matter to me, to me.

Mama just killed a man,
Put a gun against his head, pulled my trigger, now he's dead.
Mama, life had just begun,
But now I've gone and thrown it all away.
Mama, ooh, Didn't mean to make you cry,
If I'm not back again this time tomorrow,
Carry on, carry on as if nothing really matters.

Too late, my time has come,
Sends shivers down my spine, body's aching all the time.
Goodbye, ev'rybody, I've got to go,
Gotta leave you all behind and face the truth.
Mama, ooh, I don't want to die,
I sometimes wish I'd never been born at all.

I see a little silhouetto of a man,
Scaramouche, Scaramouche, will you do the Fandango.
Thunderbolt and lightning, very, very fright'ning me.
(Galileo.) Galileo. (Galileo.) Galileo, Galileo figaro
Magnifico. I'm just a poor boy and nobody loves me.
He's just a poor boy from a poor family,
Spare him his life from this monstrosity.
Easy come, easy go, will you let me go.
Bismillah! No, we will not let you go.
(Let him go!) Bismillah! We will not let you go.
(Let him go!) Bismillah! We will not let you go.
(Let me go.) Will not let you go.
(Let me go.) Will not let you go. (Let me go.) Ah.
No, no, no, no, no, no, no.
(Oh mama mia, mama mia.) Mama mia, let me go.
Beelzebub has a devil put aside for me, for me, for me.

So you think you can stone me and spit in my eye.
So you think you can love me and leave me to die.
Oh, baby, can't do this to me, baby,
Just gotta get out, just gotta get right outta here.

Nothing really matters, Anyone can see,
Nothing really matters,
Nothing really matters to me.

Anyway the wind blows.



Дискография




СТАТЬИ


BY QUEEN INC © 2017