Понедельник, 23.10.2017, 09:15
| RSS
Главная |
Меню сайта

Rambler's Top100



    Break Free (solo) Тип: табулатура


    Band - Queen
    Song - I Want To Break Free
    Album - The Works
    Tabber - Mobscene96

    This solo is 100% right because I got it from an offical Queen Tab book.
    Use synth effects. If not, use full distortion with a fading out effect.

    Synth Solo:

    E----------------------|------------------------------------------------|
    B----------------------|------------------------------------------------|
    G----------11--13--13b-|----------11--13--13b----------13b--------------|
    D------14--------------|------14---------------14-----------14----------|
    A--14------------------|--14-----------------------14-----------14-12---|
    E----------------------|------------------------------------------------|

    E----------------------------------|
    B--14b-----------------------------|
    G-------14-------------------------|
    D-----------14--12--11-12-11-------|
    A-----------------------------12---|
    E----------------------------------|

    E------------------------------------------|
    B--14b(14)(14)-----------------------------|
    G--------------14-----13-------------------|
    D-----------------14------14---------------|
    A-----------------------------14--12--11---|
    E------------------------------------------|

    E----------|
    B--7b(7)---|
    G----------| Let this ring for a about 4 seconds
    D----------|
    A----------|
    E----------|

    E---------------------------------|---------------------------------------|
    B--9b(9)------9-------9-----------|---------------------------------------|
    G---------9-------9-------9-------|---------------------------------------|
    D-----------9-------9-------9-6-6-|--7---6-----------5b(5)--2-0-----------|
    A---------------------------------|--------7--------------------2-0-------|
    E---------------------------------|----------7-5-4------------------3-0---|


    If you play this straight away, then some parts might not sound like they should. But if
    listen to the song you will get the timing right.

    Any comments or you want more Queen tabs.


    Please rate this tab!!!




    Дискография




    СТАТЬИ


    BY QUEEN INC © 2017