Четверг, 22.06.2017, 19:36
| RSS
Главная |
Меню сайта

Rambler's Top100



    Brighton Rock
     
    #----------------------------------PLEASE NOTE---------------------------------#
    #This file is the author's own work and represents their interpretation of the #
    #song. You may only use this file for private study, scholarship, or research. #
    #------------------------------------------------------------------------------#
    #

    Date: Sun, 21 Dec 1997 00:07:38 +0100 (MET)
    From: PINTER Denes
    Queen: Brighton Rock
    Album: Sheer Heart Attack

    Brian May/1974

    tablatures for the solos:

    1'47"
    |----------------------------------|
    |----------------------------------|
    |-2b4_r2p0-2p0---------------------|
    |--------------2p0-2p0---------2---|
    |----------------------2p0-----2---|
    |--------------------------3b4-0---|

    1'53" ,2'00"
    |---------12------------------12-----------------------------------------|
    |-15b17------15p12-15---12-------------------------12b-------------------|
    |--------------------------15----15p14p12-14p12----12b-------------------|
    |-----------------------------------------------14--------14p12----12b---|
    |---------------------------------------------------------------14-------|
    |------------------------------------------------------------------------|

    |-------------------|
    |-------------------|
    |-------------------|
    |-------------------|
    |-14-13--12--10-----|
    |---------------12--|


    2'38"
    |--------------------------------------------------------------|
    |--------------------------------------------------------------|
    |------------9-99----9-9---------------------------------------|
    |------------7-779---7-7---------------------------------------|
    |------------0-007---0-0---------------------------------------|
    |-0\\tr//0-------0-------0-000-0000000-0000000-0000000-0000000-|

    |---------------------------|
    |---------------------------|
    |---------------------------|
    |----------------------5b---|
    |-------------5-55555h7---5-|
    |-000x00003/7---------------|

    |-----------------------------------------------------|
    |-----------------------------------------------------|
    |-----------------------------------------------------|
    |-------------5---------------b6----57p5------7p5-----|
    |-----5-5-5557--7-----5-5-5557---7-7----7-7-7----7-7--|
    |-057-------------5557--------------------------------|

    |----------------------------------------------------------------------|
    |------------------------(12b)-----------------------------------------|
    |-------------------------12b----------------------------12b-----------|
    |-----------12-1212121214-----14-1414-----12-12121212h14-----14--1414--|
    |-12h1412h14-------------------------12p14-----------------------------|
    |----------------------------------------------------------------------|

    |--------------------------------------|
    |--------------------------------------|
    |--------------------12b-12b-121212b14-|
    |------12-1212121214-------------------|
    |-12h14--------------------------------|
    |--------------------------------------|

    |-------------------------------------------------------------------------|
    |-------12-------12------(12)------12-------12----14----12----14----12----|
    |-------12-12----12-------12-------12-------12----14----12-14----12-12-14-|
    |-14-14-------14----14-14----14-14----14-14----14----------14----12----14-|
    |----------------------------------------------------12-------------------|
    |-------------------------------------------------------------------------|

    |-----------------------------------------------------------------|
    |-14----12b-------------------------------------------------------|
    |-------12b-------------------------------------------------------|
    |----14-----1412---12---------------------------------------------|
    |----12---------14----14-12-10-12-10-1210---10--------------------|
    |----------------------------------------12----12-10-9-8-7-6-5-3--|

    |----------------------------------------------------------------------|
    |----------------------------------------------------------------------|
    |----------------------------------------------------------------------|
    |-------------------------------------------~~~~tr~~~~-----------------|
    |------------------7------------------------7---7---7-----------////-2-|
    |-0-00000-00000000-5--3b-p0-0-000-000-0000005---5---5--5\tr\\---////-0-|

    echo on
    |--------------------------------------------------------|
    |--------------------------------------------------------|
    |--------------------------------------------------------|
    |--------------------------------------------5555777-999-|
    |------------------------------------5555777-------------|
    |-0000-----00000-----000033335555777---------------------|

    |---------------------------------------1212-------------------------------|
    |------------------------12121212151515-----121515b17-b17-b17-b17-b17vv----|
    |-7777999912121212141414---------------------------------------------------|
    |--------------------------------------------------------------------------|
    |--------------------------------------------------------------------------|
    |--------------------------------------------------------------------------|


    |------------------------------------------------------|
    |-b17_r15p1215-12--------------------------------------|
    |-----------------15p14p12-14p12---12------------------|
    |-------------------------------14----14p12------------|
    |------------------------------------------14-13-12-10-|
    |------------------------------------------------------|

    |-------------|-------------|----|
    |-------------|-------------|----|
    |-------------|-------------|-0/-|
    |-------------|-------------|-/0-|
    |-------------|-10----------|----|
    |-12-12-10-12-|----12-10-12-| 5x |

    |-----------------------------------------------------------|
    |-----------------------------------------------------------|
    |-----------------------------------------------------------|
    |-----------------------------------------------------------|
    |-----------------------------------------------------------|
    |-10-12-10-12-10-12-9-12-9-12-9-12-9-12-8-12-8-12-8-12-8-12-|

    |-------------------------------------------------------------|
    |-------------------------------------------------------------|
    |-------------------------------------------------------------|
    |-------------------------------------------------------------|
    |-------------------------------------------------------------|
    |-7-12-7-12-7-12-7-12-6-7-6-7-6-7-6-7-6-7-6-7-6-7-6-7-6vvv----|

    |----------------------------------------------------------|
    |------x(0)-15b17---15p12----------------------------------|
    |------xxx---------------15p14p12-----------------------9--|
    |--------------------------------14p12------------------9--|
    |-------------------------------------14131210----------7--|
    |-<<5<3<0-------------------------------------12p10-----0--|

    |-17b19---1715---12-------------------------------------------------------|
    |------------------15---12--------------------------------------------3---|
    |-------------------------14---12-------------------------------------2---|
    |--------------------------------14---12------------------------------0---|
    |---------------------------------------14---1210--------------------x----|
    |---------------------------------------------------1210---75---30---x----|

    |------------------------------------------------------|
    |------------------------------------------------------|
    |------------------------------------------------------|
    |-------------5------------------5----------------5-5/-|
    |----*-5-555h7--7-77---5-55555h7---7-77775-5-555h7-----|
    |-5h7---------------5h7--------------------------------|

    |------------------------------------------------------|
    |----------------------------------------------12-1212-|
    |--------------------12-12----------------x-14---------|
    |-----12-12121212h14-------1412-----12-12--x-----------|
    |-12---------------------------12h14-------------------|
    |---14-------------------------------------------------|


    |-----------------------------------------------------------------------|
    |-----------------------------------------------------------------------|
    |-------------------------12--------------------------------12----------|
    |-12-----------12h14p12h14---14-12-12------------12h14p12h14---14-12-12-|
    |---12h14p12h14-----------------------12h14p12h14-----------------------|
    |-----------------------------------------------------------------------|

    |-----------------------------------------------------------------------|
    |-----------------------------------12-------12-------12-------12-------|
    |-----------------------12----------12-------12(12)---12-------12(12)---|
    |------------12h14p12h14---14-14-14----14-14----14-14----14-14----14-14-|
    |-12h14p12h14-----------------------------------------------------------|
    |-----------------------------------------------------------------------|

    |-----------------|
    |-15------15------|
    |-14b16---14b16...|
    |-----------------|
    |-----------------|
    |-----------------|


    4'29"
    |------------------------------------------------|
    |------------------------------------------------|
    |-11b13vv---11b13_r11p9vv------------9b----------|
    |---------------------------1111p9------111111---|
    |---------------------------------11-------------|
    |------------------------------------------------|

    |-------9--------9-----------------------------|
    |-12b14---12p9---------------------------------|
    |-------------12---12p11p911p9-----------------|
    |-----------------------------11p9-------------|
    |---------------------------------1110979p7----|
    |------------------------------------------9---|


    4'58"
    |-------------------------|----|---------------------------------------|
    |-------------------------|----|---------------------------------------|
    |----0--------------------|-0/-|-0/--------2b3r2p0-----------------7---|
    |-0h2-2p0-----0-----2-----|-/0-|-/0---------------20---------------6---|
    |--------2-0h2-2p0--0-----|----|--------------------210------------7---|
    |-----------------30----3-|----|----..3p0--------------300000000h5-0---|


    QUEEN:
    BRIGHTON ROCK Live Killers / 1979
    Written by "Brain" May

    9"
    |--------------------|
    |--------------------|
    |-17-----------------|
    |-17-----------------|
    |-17-----------------|
    |-15-x-x-x-x-x-x...--|

    14"
    |-------------------------------------|-------------------------------------|
    |-------------------------------------|-------------------------------------|
    |---18----18--x-18--x-18----18----18--|-x-18----18--x-18--x-18--x-18--x-18--|
    |---18----18--x-18--x-18----18----18--|-x-18----18--x-18--x-18--x-18--x-18--|
    |---18----18--x-18--x-18----18----18--|-x-18----18--x-18--x-18--x-18--x-18--|
    |---16----16--x-16--x-16----16----16--|-x-16----16--x-16--x-16--x-16--x-16--|

    |---------------------------------------------------------------------------|
    |---------------------------------------------------------------------------|
    |-x-18--x-18--x-18--x-18--x-18--x-18-----------18---------------------------|
    |-x-18--x-18--x-18--x-18--x-18--x-18-----------18---------------------------|
    |-x-18--x-18--x-18--x-18--x-18--x-18-----------18---------------------------|
    |-x-16--x-16--x-16--x-16--x-16--x-16-x-x-...-x-16-x-........slide down to 1-|

    |----------------------------------------|
    |-----------------9------------11--9-11--|
    |----------------10------------11--9-11--|
    |-----11-11-11---11---x-x-11---11--9-11--|
    |-x-x-11-11-11---11---x-x--9----9--9--9--|
    |sl.up-9--9--9----9---x-x----------------|

    |------------------------------------|
    |------------------9---9-11-11-9-11--|
    |-----------------10---9-11-11-9-11--|
    |-11-9------------11---9-11-11-9-11--|
    |--9-9-11-11-11---11---9--9--9-9--9--|
    |--9-9--9--9--9----9-----------------|

    |-----------------------------------------|
    |-----------------9----9-11-11-x-11-11-11-|
    |----------------10----9-11-11-x-11-11-11-|
    |-x-x------------11----9-11-11-x-11-11-11-|
    |-x-x-11-11-11---11----9--9--9-x--9--9--9-|
    |-x-x--9--9--9----9-----------------------|

    B E B E B E F#
    B E B E B E F#

    |-----------------------------------|
    |-----------------------------------|
    |--------9---9---6-------6\-4-9--\/-|
    |------7-9---6---6---6---6\-4-9--\/-|
    |------7-7---6---4---3---4\-2-7--\/-|
    |-5----5-0--------------------0-----|

    C# F# C# F#
    B E B E B E F#
    B E B E B E F#

    |------------------????????------------|
    |-----------------(7b9--7b9)-----------|
    |---------9---9\6------------6\-4--9-\-|
    |---------9---6-6------------6\-4--9-\-|
    |---------7---6-4------------4\-2--7-\-|
    |-5-----5-0------------------------0---|

    |----------0-----------------------------------2----22--|
    |----------0------2-----2--0--2--0--------5----2----22--|
    |-6---6-4--1------2-----2--1--2--1--------6----3----334-|
    |-6---6-4--2------2-----2--2--2--2--2-----6----4----444-|
    |-4---4-2--2------0-----------0--2--2-----4----4------2-|
    |----------0------------------------0----------2--------|

    |----------------------------|----------------------|----|
    |--4--4--4--4--4--4--4--4--2-|--2--2--2--2--2--2-0--|----|
    |--4--4--4--4--4--4--4--4--2-|--2--2--2--2--2--2-1--|-0/-|
    |--4--4--4--4--4--4--4--4--2-|--2--2--2--2--2--2-2--|-/0-|
    |--2--2--2--2--2--2--2--2--0-|--0--0--0--0--0--0-2--|----|
    |----------------------------|-------------------0--|----|

    |------------------------------|
    |--2--2--2--2--2--2--2--2-3----|
    |--2--2--2--2--2--2--2--2-4----|
    |--2--2--2--2--2--2--2--2-5----|
    |--0--0--0--0--0--0--0--0-5----|
    |-------------------------3----|

    |-----------------------------------------------------|
    |---------------------------------------3-0---2---0---|
    |-2b4-r2p0h2p0h2p0----------------0-2---2-1---2---1---|
    |-----------------2p0-------------0-2-----2---2---2---|
    |--------------------2p0----------0-0-----2---0---2---|
    |-----------------------3b---0------------0---0---0---|

    |---------12---------------------------------------------|
    |-15b17------15p12-15---12----12-------------------12b---|
    |--------------------------15----15p14p12-14p12----12b---|
    |-----------------------------------------------14-------|
    |--------------------------------------------------------|
    |--------------------------------------------------------|

    |-----------------------------------------------------|
    |-----------------------------------------------------|
    |----------12b--------------------------------7---7---|
    |-14p12----12b-------------------------6------5---5---|
    |-------14-------14-13--12--11---------7------7---7---|
    |------------------------------12--000-0----0---------|

    |-------12----------------------------------------------|
    |-15b17----15-12-17r15p12----12-------------------12b---|
    |-------------------------15----15p14p12-14p12----12b---|
    |----------------------------------------------14-------|
    |-------------------------------------------------------|
    |-------------------------------------------------------|

    |---------------------------------------------------12tr------------|
    |-----------------------------------8---10-8--8-----12vv------0-----|
    |----------12b----------------------9---10-8--9---------------0-----|
    |-14-12----12b---------------------10--------10---------------0-----|
    |-------14-----14-13--12--10-------10--------10---------------0-----|
    |----------------------------12\----8---------8---------------------|

    |-----------------------------------------------------------|
    |-----------------------------------------------------------|
    |-2b4---4r2--0h2p0-------------------------9-------7---7\4/-|
    |------------------2-0---------------------9---5-7-7---7\4/-|
    |----------------------2-1-0---------------7---5-7-7---7\4/-|
    |----------------------------3-0----0--0-------5-5-5--------|

    |----------------------------------------------------------|
    |----------------------------------------------------------|
    |----------------------------------------------------------|
    |----------------------------------------------------------|
    |-7-7-7-x-5-5-5-x--4-4-4-4-3-3-3-3-2-2-2-2-1-1-1-1-0-0-0-0-|
    |----------------------------------------------------------|
    delay on
    v
    |---------|----------------------|------|---------------------------|
    |---------|--2--2--2--2--2--2-0--|------|--2--2--2--2--2--2--2--2-3-|
    |---------|--2--2--2--2--2--2-1--|--0/--|--2--2--2--2--2--2--2--2-4-|
    |---------|--2--2--2--2--2--2-2--|--/0--|--2--2--2--2--2--2--2--2-5-|
    |---------|--0--0--0--0--0--0-2--|------|--0--0--0--0--0--0--0--0-5-|
    |-3--000--|-------------------0--|------|-------------------------3-|


    E-|-0--trem down to F# - release -|

    |----------|---------|---------|---------|---------|
    |----------|---------|---------|---------|---------|
    |----------|---------|---------|---------|---------|
    |----------|---------|---------|---------|---------|
    |----------|---------|---------|---------|---------|
    |-h2-2-2-2-|-2-2-2-2-|-2-2-2-2-|-2-2-2-2-|-2-2-2-2-|

    |-------------------------------------------------------------------|
    |-------------------------------------------------------------------|
    |-----------2-------------2-------------2-------------2-------------|
    |-4-----2-4---2---4-------2-----4-------2-----4-------2-----4-------|
    |-------------------------------------------------------------------|
    |---2-2---------2---2-2-2---2-2---2-2-2---2-2---2-2-2---2-2---2-2-2-|


    |---------|---------|-------------------|
    |---------|---------|-___---------------|
    |---------|---------|-5r4p2-------------|
    |---------|---------|-------4---2---2-4-|
    |---------|---------|---------4---4-----|
    |-2-2-2-2-|-2-2-2-2-|-------------------|

    |---------|---------|-___---------|---------|
    |---------|---------|-5p2---___---|---------|
    |---------|---------|-----4-2b3---|---------|
    |---------|---------|-----------4-|---------|
    |---------|---------|-------------|---------|
    |-2-2-2-2-|-2-2-222-|-------------|---------|

    |---------|---------|-___------------------|
    |---------|---------|-5p2---___------------|
    |---------|---------|-----4-2b3---___------|
    |---------|---------|-----------4-4p2--2-4-|
    |---------|---------|----------------4-----|
    |22-222---|---------|----------------------|

    |---------|-----------------------------|------|
    |---------|-___-------------------------|------|
    |---------|-4p2---2-___-----------------|------|
    |---------|-----4---4p2---------4---4---|------|
    |---------|-------------4-3-2-0---------|------|
    |-2-------|-----------------------2---2-|------|

    |--____---------|-___-------|-___-------|-----------|
    |--10p9---------|-5p4-------|-1p0-------|-___-------|
    (11)----11-11---|-----6-6---|-----2-2---|-4p2-------|
    |---------------|-----------|-----------|-----4-4---|
    |---------------|-----------|-----------|-----------|
    |---------------|-----------|-----------|-----------|

    |-----------|-----------|-----------------|
    |-----------|-----------|-----------------|
    |-___-------|-----------|-----------------|
    |-4p2-------|-___-------|---------4---4---|
    |-----4-4---|-4p2-------|-----------------|
    |-----------|-----4-5---|-5-4-2-2---------|


    |-----------------------2-4-5-4-2-------------------------|
    |-------------------2-5-----------5-2-----___-------------|
    |-------------1-2-4-------------------5-4-2b3-------------|
    |---------2-4---------------------------------4-2---------|
    |-4-0-2-4-----------------------------------------4-3-2-0-|
    |---------------------------------------------------------|


    |---------|---------|-------------------------------------4-----5-----|
    |---------|---------|-------------2-----4-----5-----7-----------------|
    |---------|---------|-2-----4-----------------------------------------|
    |---------|---------|---------------------4-4---4-4---4-4---4-4---4-4-|
    |---------|---------|-------------------------------------------------|
    |-2-2-2-2-|-22222-2-|---2-2---2-2---2-2-------------------------------|

    |-4-------------------------------------------------------------|
    |-------7-----5-----4-----2-------------------------------------|
    |----------------------------*-*--4-----2-----1-----------------|
    |---4-4---4-4---4-4---4-4-----------4-*---2-4-------4-----2-----|
    |---------------------------------------------------------------|
    |-----------------------------------------------*-2---2-2---2-2-|

    |-----------------------------------------|
    |-----------------------------------------|
    |-----------------------------------------|
    |-------------------------4---4-4-4-4-4-4-|
    |-4-----2-----------------4---4-4-4-4-4-4-|
    |---2-2---2-2-5-0-0-4-0-0-2---2-2-2-2-2-2-|

    |-------|---------|-----------|-----------|---------|---------|---------|
    |-------|---------|-----------|-___-------|-2-------|---------|---------|
    |-------|---------|-___-------|-4p2-------|---4-2-0-|---------|---------|
    |-2-----|-2-------|-4p2-------|-----4-2-0-|---------|-4-2-----|---------|
    |-------|---4-2-0-|-----4-2-0-|-----------|---------|-----4-2-|-4-2-0---|
    |-------|---------|-----------|-----------|---------|---------|-------3-|

    fade in fade out volume control
    |-----------2-----------------2----------------2--|
    |-----------3-----------------3----------------3--|
    |-----------2-----------------2----------------2--|
    |-----------0-----------------0--------4-------0--|
    |-----------0--------4--------0--------4----------|
    |-2------------------2-----------------2----------|


    5'45"
    fade in
    |-------7-------------------|-----------------------------------------|
    |-------10------10----------|-----------------------------------------|
    |-------7-----------7-------|-----------------------------------------|
    |-------7--------------7----|-----------------------------------------|
    |-------7-------------------|-7-------7-------7-------7-------7-------|
    |-0-------------------------|-----0-------0-------0-------0-------0---|

    |--------------------------------|-------|-------|
    |--------------------------------|-------|-------|
    |---------9-------9-------9------|-------|-------|
    |-------9-----9-------9-------9--|-------|-------|
    |-7------------------------------|-------|-------|
    |-----0--------------------------|-------|-------|

    |-----------------7---------------------------------------------------------|
    |---------------------*-10-8---7--------------------------------------------|
    |----------------------------------9---7----------------9---7-------7---9---|
    |---------7---*----------------------------9-7------------------7h9---9-----|
    |-----7----------------------------------------10-9-7-----------------------|
    |-0-------------------------------------------------------------------------|

    |---------7------------------------------------------------------------------|
    |-------------*-10-8---7-----------------------------------------------------|
    |--------------------------*--------------------9---7---*---7----------------|
    |-9---*------------------------7---9-7--------9---9-------9---9-7------------|
    |--------------------------------------10-9-7---------------------10-7---*---|
    |----------------------------------------------------------------------------|

    |---------------------7-10/12-12---*---*---12-14-15-14-12----|
    |--------------7-8-10-------------------------------------15-|
    |----------7-9-----------------------------------------------|
    |------7-9---------------------------------------------------|
    |-7-10-------------------------------------------------------|
    |------------------------------------------------------------|

    |------------------------------------------------------------------------|
    |-12---------------------------------------------------------------------|
    |------14---12---11------------------------------------------------------|
    |---------------------14---12-14-----------------------------------------|
    |--------------------------------14---12-14-10---9---7---5---7---*---*---|
    |------------------------------------------------------------------------|

    |----------------------------------------------------------12---12---*---*---|
    |-----------------------------------------------------12---------------------|
    |----------------------------9---9v---9/11-13---13/14------------------------|
    |----/-----------9---9---9---------------------------------------------------|
    |-7-9-11---11/12-------------------------------------------------------------|
    |----------------------------------------------------------------------------|

    |-16r14p12---12p11--------------------------------------------------------|
    |------------------14---14p12---------------------------------------------|
    |-----------------------------14---14--1311---*---9---8---6---4---2---0---|
    |-------------------------------------------------------------------------|
    |-------------------------------------------------------------------------|
    |-------------------------------------------------------------------------|

    |---------------------------|---------|----|
    |---------------------------|---------|----|
    |---------------------------|---------|-0/-|
    |--x--x--x------------------|---------|-/0-|
    |-----------x--2--0---------|---------|----|
    |--------------------3--2-x-|-0-0-0-0-| 4X |

    |---------------------|---------|---------|-----------------------------------|
    |---------------------|---------|---------|-----------------------------------|
    |---------------------|---------|---------|-----------------------------------|
    |-------------5-------|---------|---------|-------------5-------------5-------|
    |---------5-7---7-----|---------|---------|---------5-7---7-7-7-7-7-7---7-7-7-|
    |-0-3-5-7---------0-0-|-0-0-0-0-|-0-0-0-0-|-003-5-7---------------------------|

    |------------------------------------------------------------|
    |------------------------------------------------------------|
    |---------------5--------------------------------------------|
    |---5-----5-----5-----5-----------12----12-14-14-14-14-14-14-|
    |-7---7-7---7-7---7-7---7-7-12/14----14----------------------|
    |------------------------------------------------------------|

    |-----------------|-----------------|----|-----------------|----|
    |-----------------|-----------------|----|-----------------|----|
    |-12-13-----------|-12--------------|-0/-|-12-13-----------|-0/-|
    |-------12---14---|----14-12---14---|-/0-|-------12---14---|-/0-|
    |-----------------|-----------------|----|-----------------|----|
    |-----------------|-----------------|----|-----------------| 2X |

    |----------------|----|-------------------------12-14-15-14-12----12----------|
    |----------------|----|-------------------12-15----------------15----15-12----|
    |-12-------------|-0/-|-------------12-14----------------------------------14-|
    |----14-12--14---|-/0-|-12-14-12-14-------------------------------------------|
    |----------------|----|-------------------------------------------------------|
    |----------------| 2X |-------------------------------------------------------|

    |-----------------------------------------------------------------|
    |-----------------------------------------------------------------|
    |-12-14-12-11-12-11-----------------------------------------------|
    |-------------------14-12-14-12-----------------------------------|
    |-------------------------------14-12-10-9-10-9-7-5-7-5-5-7-7-5-5-|
    |-----------------------------------------------------------------|

    |-------------------------------------------------------------------------|
    |---------------------9-------9-------9-------9-------9-------9-------9---|
    |-------------9-------9-------9-------9-------9-------9-------9-------9---|
    |-----9-------9-------9-------9-------9-------9-------9-------9-------9---|
    |-7-7-7-7-7-7-7-7-7-7-7-7-7-7-7-7-7-7-7-7-7-7-7-------7-------7-------7---|
    |-------------------------------------------------------------------------|

    |-------------------------------------|------------------------------------|
    |-9-----------------------------------|---------------------------------9--|
    |-9-------7-------7-------7-------7---|-----------------------------9------|
    |-9-------7-------7-------7-------7---|------------------6-\4/--9----------|
    |-7-------7-------7-------7-------7---|--------------7---------------------|
    |---------5-------5-------5-------5---|-0---0---/7-------------------------|

    |---------------14b16---14-12----------------------------------------------|
    |-12---15b17v-------------------14-12--------------------------------------|
    |---------------------------------------14-13---11-9-----------------------|
    |------------------------------------------------------11-9----------------|
    |-------------------------------------------------------------12-11---9-7--|
    |--------------------------------------------------------------------------|

    |-------------|--------------------------------------------------------------|
    |-------------|-----------------------------------------------------12-12----|
    |---------4---|--------------------------------------------12-------------12-|
    |---------5---|---------------------5---5-5/9-9-9-12-12-12----12-12----------|
    |---------5---|---------------5-5-5---5--------------------------------------|
    |-9-7---5-3---|-3-3-3-3/7-7-7------------------------------------------------|

    |----------------------------12----------------------------|
    |-15-12-12-15-12-15-12-15-15----15-13-12-------------------|
    |----------------------------------------14-12----12-------|
    |----------------------------------------------14----14-12-|
    |----------------------------------------------------------|
    |----------------------------------------------------------|

    |-----------------------------------------------------------------|
    |-----------------------------------------------------------------|
    |-----------------------------------------------------------------|
    |-----------------------------------------------------------------|
    |-15-14-15-14-12-10-12-10----10-----------------------------------|
    |-------------------------12----12-10-12-10-8-10-8-7-8-7-5-7-5--3-|

    |------------------------------------------|
    |----------------------------------------0-|
    |-------------4---4---4---4---4---4------0-|
    |---------5---5---5---5---5---5---5------0-|
    |-5---5---5---5---5---5---5---5---5--------|
    |-3---3---3---3---3---3---3---3---3--------|
    _____ ________
    |-17b18---18r17p15_____---_____------|-17b18---rp15-------------|----|
    |-----------------17b18---17p15------|-------------b18--rp15----|----|
    |-------------------------------17---|----------------------17--|-0/-|
    |------------------------------------|--------------------------|-/0-|
    |------------------------------------|--------------------------|----|
    |------------------------------------|--------------------------|----|

    |----------------------------------------------------------------------|
    |----------------------------------------------------------------------|
    |-15---14-12---10------------------------------------------------------|
    |-----------------12---10-8---7-5-------------------------------3------|
    |-----------------------------------8-6---5-3-------------------3------|
    |-----------------------------------------------6-5---3-1---3---1------|

    8'43"
    |-----------------||-----------------||------------------------------------|
    |-----------------||-----------------||------------------------------------|
    |-----------------||-----------------||------------------------------------|
    |---------9-----7-||---------9-----7-||---------9-----7---7------------9---|
    |-----------------||-----------------||--------------------7h9-7-----------|
    |-x-7---7-----7---||-7-7---7-----7---||-5-7---7-----7------------7---7-----|

    |---------_____---_____-------------------------------------------------------|
    |-------*-10b12---10b12v---------------------------------------*-10b12---10---|
    |-----------------------------------------------------------------------------|
    |---7------------------------9---9-7---7-------------9------------------------|
    |----------------------------------------7h9-9--------------------------------|
    |-7--------------------------------------------7---7-----7-*------------------|

    |-------------------------------------------------------------------|
    |-7---7-------------------------------------------------------------|
    |-------9---9-7---7-------------------------------------------------|
    |-------------------9---9-7---7-------------------------------------|
    |-------------------------------9---9-7---7-------------------------|
    |-------------------------------------------10---10-9---9-7---7-5---|

    |--------------------------------------------------------|
    |--------------------------------------------------------|
    |--------------------------------------------------------|
    |---------9-----7---7-------------9-----7---------7------|
    |---------------------7h9-9-------------------7h9--------|
    |-5-7---7-----7-------------7---7-----7-----7---------7--|

    |------------|-----|------------------------7---7---7---7---7---7---7---7--|
    |------------|-----|------------------------7-9-7---7-9-7---7-9-7---7-9-7--|
    |------------|-0/--|--------9-------9-------8-9-8---8-9-8---8-9-8---8-9-8--|
    |---9-----7--|-/0--|---9----9-------9-------9-9-9---9-9-9---9-9-9---9-9-9--|
    |---9-----7--|-----|---9----9-------9-------9-9-9---9-9-9---9-9-9---9-9-9--|
    |-7-----7----| 10X |-7------7-------7-------7-7-7---7-7-7---7-7-7---7-7-7--|

    |-7------------------------------------------------------------|
    |-7------------------------------------------------------------|
    |-8-------------------7-7--------------------------------------|
    |-9-------9-------7---7-7-------------------------9---9-7---9--|
    |-9-------7-------5-------------------7------------------------|
    |-7----------------------/7-7-7-7-7-7-----7-7-7-7--------------|

    |---------------------------------------------------------10p7------------|
    |---------------------------------10p7-------------------------10p7v------|
    |---------9---9-7----------------------9p7v----------------------------9--|
    |-----------8-------9-------------------------9---------------------------|
    |-------------------------------------------------------------------------|
    |-7-7---7-------------7---7-7---7-----------------7-7---7-----------------|

    |-------------------------------------------------------------------|
    |----------------------------------------------10p7----7------------|
    |---------9p7---7-----------------------------------10-----9p7---7--|
    |-------------9-----9-----7------------------------------------9----|
    |---------------------9-9-----9p7-----------------------------------|
    |-0-7---7-------------------------7-7---7-10------------------------|

    |----------------------------------------------------------------------------|
    |----------------------------------------------------------------------------|
    |----------------------------------------------------------------------------|
    |-9p7---7--------------------------------------------------------------------|
    |-----9-----9p7--------------------------------------6-6-6-6-6-7-9-9-9-9-9-9-|
    |---------------10-7-7-7-7-7-7-7-7-7-7-7-7-7-7-7-7-7-------------------------|

    |---------------------------------------------------------------------|
    |---------------------------------------------------------------------|
    |---------------------------------------------------16-16-16-16-16-16-|
    |-9-9-9-9-9-9-9/13-13-13-13-13-13-16-16-16-16-16-16-------------------|
    |---------------------------------------------------------------------|
    |---------------------------------------------------------------------|

    with the same finger
    |-------------------14-14-14-14-14---17b19_________let ring__________________|
    |-16-16-16-16-16-16-----------------(17b18)---x-x-x-x-x-x-x--x-...slowing down
    |----------------------------------------------------------------------------|
    |----------------------------------------------------------------------------|
    |----------------------------------------------------------------------------|
    |----------------------------------------------------------------------------|

    |---------18b19--r1816-------------14-------------12-------------10-----------|
    |------------------------17-------------15-------------13-------------11------|
    |-16--16----------------------16-------------14-------------12-------------10-|
    |-----------------------------------------------------------------------------|
    |-----------------------------------------------------------------------------|
    |-----------------------------------------------------------------------------|

    |-8-------------8-----------8-----------6-------------------------------------|
    |-----10------------8-----------8-----------8--6------------------------------|
    |----------10-----------9-----------8-------------8--7------------------------|
    |-------------------------------------------------------10--8-----------------|
    |--------------------------------------------------------------10--8----------|
    |---------------------------------------------------------------------11--10--|

    |------|-------------|-------|---------|
    |------|-------------|-------|-6-------|
    |------|-------------|---0/--|-7-------|
    |------|-10-10-10-10-|---/0--|-8-------|
    |------|-10-10-10-10-|-------|-8-------|
    |-8--6-|--8--8--8--8-|4 times|-6-------|

    |--------------|--8---------|-------|
    |--8---8--6--6-|--8---10--8-|-------|
    |--9---9--7--7-|--9---10--9-|---0/--|
    |-10--10--8--8-|-10---10-10-|---/0--|
    |-10--10--8--8-|------------|-------|
    |--8---8--6--6-|------------|3 times|

    |-----------------------------------------------------------------------|
    |------------------------------------------------------------12/13-13---|
    |--------------------------------------------------12---12--------------|
    |-------------------------------9---10---12---14------------------------|
    |--------------------10-10-10-------------------------------------------|
    |-3/7-8---10/12-12------------------------------------------------------|

    |-----------------------19b20--20-\-|--|------|-3-------|-------|
    |-15/17-17---/20---20---------------|--|----5-|-3---5---|-----\-|
    |-----------------------------------|--|--4-5-|-4---5---|-0/--\-|
    |-----------------------------------|--|------|-5---5---|-/0--\-|
    |-----------------------------------|--|------|---------|-------|
    |-----------------------------------|--|------|---------| 3X ---|

    11'02"
    |-------------------------------------------|-----------------------------|
    |-------------------------------------------|-----------------------------|
    |-------------------------------------777999|-12-12-12-12/14-14-14-12b----|
    |----------------------------555777999------|-12-12-12-12/14-14-14-----14-|
    |----------------------555777---------------|-----------------------------|
    |-000000...000333555777---------------------|-----------------------------|

    echo off
    v
    |-------------------------------------------------------------|-------|-------|
    |-----------14-12----14--------14--------12-12----14-12-12----|-15----|------\|
    |-14-12b----14-12----14-12b----14-12b----12-12-14-14-12-12-14-|-14b16-|--0/--\|
    |--------14-------14--------14--------14-------14----------14-|-------|--/0---|
    |-------------------------------------------------------------|-------|-------|
    |-------------------------------------------------------------|-------| 7 X |

    C# F# C# C# C# F# C# F#
    B E B E B E F#
    B E B E B E F#

    |----------|----------------------------------------------12---12-------|
    |----------|----------------------------------------------12---12---12\-|
    |----------|--------------------------------------------------------12\-|
    |----------|--7-----9-9-7---7-9-9-9-7---7-9-9-9-7-----9-----------------|
    |----------|--7-----9-9-7---7-9-9-9-7---7-9-9-9-7-----9-----------------|
    |-5----7---|-7----7-7-7-7---7-7-7-7-7---7-7-7-7-7---7-------------------|

    |-----------------------------------------|
    |--------------------------------2--------|
    |----0-----0---------------------2--------|
    |-0----0h2---2p0------(0)--------2--------|
    |----------------2-0h2---2-0-----0--------|
    |----------------------------3-0------3b--|

    |------------------------------------|-----------------------------|
    |---------------------------2--------|-----------------------------|
    |-----0---------------------2--------|-------0---------------------|
    |-2-----2p0-----------------2--------|-(0)h2---2p0-----------------|
    |-----------2-2-0---2-0-----0--------|---------------0-2---2-0-----|
    |-----------------3-----3-0------3b--|-------------------------3-0-|

    |--------------------------------------|
    |--------------------------------3-----|
    |-2b3rp0-------------------------4-----|
    |--------2-0---------------------5-----|
    |------------2-1-0---------------5-----|
    |------------------3-0-0-0-0-0-0-0-----|

    * : auxiliary rythmical sign, ('pause', beat)
    0/
    /0 : repeat last bar

    delay:
    middle > left echo > right echo
    0.80...0.85 sec



    Brighton Rock intro solo from Live At The Wembley
    |----------------------------------------| |----------------|
    |----------------------------------------|bass |----------------|
    |-9b11_r9p7-9-----9b11_r9p7--------------|-------------------|----------------|
    |---------------------------9-7----------|--9-7---------___--|----------------|
    |-------------------------------9-8-7\5b-|-----9-7-5-4-5p4-2-|-0h2-0----------|
    |----------------------------------------|-------------------|-------2-1-0tr--|

    |--------------------------------------------------------------|
    |--------------------------------------------------------------|
    |----------------------------------7------------------------7b-|
    |-----------------_______-----7-9----10b__12vr_10--7-8-9-------|
    |-----0-2-2---5-7-7h8p7p5-7/9----------------------------------|
    |-0-2----------------------------------------------------------|

    |--------------------------------------------------------------------------|
    |--------------------------------------------------------------------------|
    |-9b11__r9p7-----9--7------------------------------------------------------|
    |------------9---------9--7v--9----___-------------------------------------|
    |----------------------------------9p7----7-5---7-5b---------5-7h8p7p5-7---|
    |---------------------------------------------7------7-5-6-7---------------|

    |-----------------------------------------------------------------------------|
    |-----------------------------------------------------------------------------|
    |-----7------7--6-----------7---6------------7--8--7--6-------------------7b--|
    |-79---9v----------7-9-6------9----6-9-6---9-------------9--6--7--8--9v-------|
    |-----------------------------------------------------------------------------|
    |-----------------------------------------------------------------------------|

    |---------------------------------------------------------------------------|
    |-______---7-10-9-8-7-------------------------------------------------------|
    |-11r9p7-9------------10-9-7------------------------------------------------|
    |----------------------------9-7--------------------------------_______-----|
    |--------------------------------9-8-7-5---7---5b-------------5-7h8p7p5-7---|
    |----------------------------------------7---7-----7----5-6-7---------------|

    |----------------------------------------------------|
    |----------------------------------------------------|
    |---------------------------------6-7-9-10-10b_11vv--|
    |-----7-9---------------------7-9--------------------|
    |-7-9-----------------5-7-8-9------------------------|
    |---------7v----5-6-7--------------------------------|



    an early version of
    Brighton Rock solo (part of)
    played as outtro on
    Son & Daughter/ Live at the BBC

    The rythm is not 'regular' at several places.
    |---------------------------------------------------------------------|
    |---------------------------------------------------------------------|
    |---------------------------------------------------------------------|
    |-----------------------------5-------------------------------5-------|
    |-------------5---5-5-5-5-5h7-----7-----------5---5---5-5-5h7-----7---|
    |-0---0-0-x---------------------------0-0-5/7-------------------------|

    |--------------------------------------------------------------------------|
    |--------------------------------------------------------------------------|
    |-----------------------------------------7---7---7-7----------------------|
    |-------------------------5---5-5-5/7-7h9-------------9p7-9p7-5b-----------|
    |-7-7-----5---5---5-5-5h7------------------------------------------7-7-7v--|
    |-----5/7------------------------------------------------------------------|

    |----------------------------------------------------------------|
    |--------------------------------------------12------------------|
    |------------------------------9---9-9-11b13------13r11p9----9--/|
    |-------------9---9-9-11---*-*----------------------------11-----|
    |-/11---11-11----------------------------------------------------|
    |----------------------------------------------------------------|

    |----------------------------------------------------------------------|
    |----------------------------------------------------------------------|
    |---------------------______----12b------------------------------------|
    |-------12---12h13p12-121212h14-------14-14-14----------12---12---12---|
    |-12h14----------------------------------------12-12h14----------------|
    |----------------------------------------------------------------------|

    |--------------------|
    |--------------------|
    |-______----12b------|
    |-121212h14-------14-|
    |--------------------|
    |--------------------|

    -------------------------------------------------------------12---------------
    ----------------------------------------------------------------15p12---------
    ------------------------------------12b-----------12-14b16------------14b16---
    -14----------12---12-12-12-12-12h14-------14----------------------------------
    ----12-12h14-----------------------------------12-----------------------------
    ------------------------------------------------------------------------------
    tempo: 670/min
    |----12------------------12-------------------------------------------------|
    |-12----15p12---------12----15p12-14p12-13p12-13p12-------------------------|
    |-------------14b16---------------------------------15p14p12----12h14p12----|
    |------------------------------------------------------------14----------14p|
    |---------------------------------------------------------------------------|
    |---------------------------------------------------------------------------|

    |------------------------------------------------------------|
    |------------------------------------------------------------|
    |-------------------------------12h14p12---------------------|
    |p12h14p12h14p12----12----12-------------14-12h14p12----12---|
    |----------------14----14----14----------------------14------|
    |------------------------------------------------------------|

    |------------------------------------|
    |------------------------------------|
    |------------------------------------|
    |-14---12-14-12----------------------|
    |---------------14-13-12-10----------|
    |---------------------------12-10v---|

    |---------------------------------_______-------|
    |------15b17v---15-12-15p12h15p12-15p12---------|
    |--------------------------------------15p14p13-|
    |-----------------------------------------------|
    |---x-------------------------------------------|
    |---x-------------------------------------------|



    |-------|-----------------|----|-----------------12-15-b17vv----|
    |-12-15-|-b17-b16-b17-b16-|----|-b17___vvv----15----------------|
    |-------|-----------------|-0/-|--------------------------------|
    |-------|-----------------|-/0-|--------------------------------|
    |-------|-----------------|----|--------------------------------|
    |-------|-----------------|15 X|--------------------------------|

    |-15---12---------------------------------------------------|
    |----------15--12--________---------------------------------|
    |------------------15p14p12----14--12-----------------------|
    |---------------------------14---------14-12----------------|
    |--------------------------------------------14-------14\---|
    |-----------------------------------------------12-12-------|


    |---------------------------|
    |---------------------------|
    |---------------------------|
    |---------------------12----|
    |-----10h12p10h12/14-----14-|
    |-12------------------------|

    |---------------------------------------------------------------------------|
    |---------------------------_________---------------------------------------|
    |--------------------------------12---12vv\--2b3__r2-----0------------------|
    |---------------------12----12h14--14----------------------2-0--------------|
    |-----10h12p10h12/14-----14------------------------------------2-1-0--------|
    |-12-----------------------------------------------------------------3-0----|

    Transcribed by Pinter Denes

    lyrics:
    Brighton Rock (May)

    Happy little day, Jimmy went away
    Met his little Jenny on a public holiday
    A happy pair they made, so decorously laid
    'Neath the gay illuminations all along the promenade
    "It's so good to know there's still a little magic in the air
    I'll weave my spell"

    "Jenny will you stay - tarry with me pray
    Nothing 'ere need come between us tell me love, what
    do you say"
    "Oh no I must away to my Mum in disarray
    If my mother should discover how I spent my holiday
    It would be of small avail to talk of magic in the air
    I'll say farewell"

    CHORUS

    O Rock of Ages, do not crumble, love is breathing still
    O Lady Moon, shine down a little people magic if you will

    Jenny pines away, writes a letter everyday
    "We must ever be together, nothing can my love erase"
    "Oh no I'm compromised, I must apologise
    If my lady should discover how I spent my holidays..."



    Дискография




    СТАТЬИ


    BY QUEEN INC © 2017