Меню сайта



Brighton Rock1 Тип: аккорды


--------------------------------------------------------------------
QUEEN - BRIGHTON ROCK
--------------------------------------------------------------------

Album - Sheer Heart Attack
Author - Brian May
By - Kyle Badner 17/8/2005


Chords

G F# C# E B E/D# C#/C A G/E
e|------------------------------------|
B|-----------------------------2---3--|
G|-----11------9------9--------2---4--|
D|-17--11--11--9--9---9----6---2---5--|
A|-17--9---11--7--9---6----3---0---5--|
E|-15------9------7----------------0--|

Intro:

G G G G G G G G

C# F# C# F#

Verse:

B E B E
Happy little day Jimmy went away

B E F#
Met his little Jenny on a public holiday

B E B E
A happy pair they made so decorously laid

B E F#
'Neath the gay illuminations all along the promenade

A E E/D# C#
It's so good to know there's still a little magic in the air

C#/C C# B E
I'll weave my spell

C# F# C# F#

B E B E
Jenny will you stay tarry with me pray

B E
Nothing e'er need come between us

F#
Tell me love what do you say?

B E B E
Oh no I must away to my mum in disarray

B E F#
If my mother should discover how I spent my holiday

A E E/D# C#
It would be of small avail to talk of magic in the air

C#/C C# B E
I'll say farewell

C# B E A
Oh rock of ages do not crumble

E
Love is breathing still

C# F#
Oh lady moon shine down

B A
A little people magic if you will

A E A E

A G

(Giant Solo)

C# F# C# C# C# F# C# F#

B E B E
Jenny pines away writes a letter ev'ry day

B E
We must ever be together

F#
Nothing can my love erase

B E
Oh no I'm compromised

B E B E
I must apologize if my lady should discover

F#
How I spent my holidays huhuhhahahahuhuhuhuha

B B B B

A G A G

G G/E

--------------

Thats it!

Any corrections or suggestions e-mail me at kbadner@yahoo.com

=P




Дискография




СТАТЬИ

 
 

BY QUEEN INC © 2020