Понедельник, 26.06.2017, 04:59
| RSS
Главная |
Меню сайта

Rambler's Top100



    Called Love Тип: басс табулатура


    Artist: Queen
    Song: Crazy little thing called love

    A

    G -------4--------4---4-7-9h5-5-5-4---
    D ---4-7---7--4-7--75---------------5-
    A -5--------5-------------------------
    E ------------------------------------

    B

    G -------4----------------4--
    D ---4-7---7----------4-7--7-
    A -5------------3-3-5-------5
    E ----------6-6--------------

    C

    G ----------------------------------------------------------
    D -5-------5---------------5-------8-7-5--------------------
    A ---7-5-7---7-5-7-3-3-3-3---7-5-7-------8-7-5-----7-7------
    E ---------------------------------------------8-7-----5-5-0

    D

    G ----------------------------------------
    D -------------------------------7-75-4---
    A -5-4-3-------------7-7-7-7-7-7--------7-
    E ----------5-4-3-------------------------

    E

    G ---------------------------------7----------------------------
    D -8---------8-------------5-5---7---7-8-7-5--------------------
    A ---10-8-10---10-8-10-5-5-----5-------------8-7-5-----7-7------
    E -------------------------------------------------8-7-----5-5-0

    F

    G ---------------------------------
    D ---------------------------------
    A -5-4-3--------------7-7-7-7-7-7--
    E ----------5-4-3-----------------5

    G

    G ---------
    D ---------
    A ---10-9-7
    E -10------

    H

    G ---------------4--
    D -----------4-7---7
    A -----3-3-5--------
    E -6-6--------------



    play:A+A+B+A+A+B+C+D+A+A+B+E+F+G+A+A+B+H+H+H+H

    tabbed by james

    "For God so loved the world that
    he gave his one and only son that
    whosoever believes in him shall
    not perish but have everlasting
    life"
    John 3:16




    Дискография




    СТАТЬИ


    BY QUEEN INC © 2017