Понедельник, 23.10.2017, 09:18
| RSS
Главная |
Меню сайта

Rambler's Top100



    Dead On Time Тип: табулатура


    #----------------------------------PLEASE NOTE---------------------------------#
    #This file is the author's own work and represents their interpretation of the #
    #song. You may only use this file for private study, scholarship, or research. #
    #------------------------------------------------------------------------------#
    #

    Queen: Dead On Time

    some riffs, and the solos
    |---------|---------|--------|
    |--7b8----|-12b13---|-15b16--|
    |--7b9----|-12b14---|-13b14--|
    |-10b11---|-11b12---|-15b16--|
    |-11b12---|-11b12---|-13b14--|
    |---------|---------|--------|

    |---------------------------------------------------------------|
    |---------------------------------------------------------------|
    |-----------------------42b2---------------------------4542-----|
    |-------------------------4-42-2-------42-2-2--------------42---|
    |-0---------------------------4-420------4---432020----------420|
    |--2-22-2202222-220222x------------2-20------------202----------|


    |---- Riff A -----------------|-----------|
    |----------------------------------|-----------|
    |-----------------------b5_r42-----|-0/--------|
    |----42-2-2---------242-------42---|-/0-...2---|
    |------4---432020---------------420|--------432|
    |2-2-------------2-2---------------|-----------|

    |---------------------------------------------------------------------|
    |-2---2-------3p2--2---3p2--2---3p2-----------------------------------|
    |-2---2-------2----2---2----2---2--------------------------b5_r42-----|
    |-2---2-------4p2--2---4p2--2---4p2-----42-2-2---------242-------42---|
    |-0---0-------0----0---0----0---0---------4---432020---------------432|
    |-----------------------------------222-------------222---------------|

    |----------------------|
    |----------------------|
    |-0/-------------------|
    |-/0-------242-2--3-4--|
    |-------------4--------|
    |----...222------------|

    A E A E A(sus4)
    A E(VII) D B A
    Riff A
    A E(VII) D B A#
    A E(VII) D B F#

    |---------------------------------|--------------------------------|
    |---------------------------------|--------------------------------|
    |---------------------------------|--------------------------------|
    |---------------------------------|--------------------------------|
    |-----------------02-22-220-------|----------------02222-220-------|
    |-02222-220222220----------2222222|02-2222202222222---------2-22-22|

    |-----------------|------------------------------|
    |-----------------|------------------------------|
    |-----------------|------------------------------|
    |-----------------|------------------------------|
    |-----------------|-2222-22-2222222-222---2222-2-|
    |-0222222202222222|2-------2-------2---2-2------2|

    solo1
    |-45424242----------------------------------------------------|
    |---------5252525252423232------------------------------------|
    |-------------------------54242---2-----------2b--42--2-------|
    |------------------------------42---------2424--4---4---424---|
    |--------------------------------4-4303404--------------------|
    |-------------------------------------------------------------|

    |--------------2-22-----------------4--------|
    |-252-25252-252--2-34-47--4-47--47-7-747-----|
    |----5-----5----------4--7-----7-4-----------|
    |--------------------------------------------|
    |--------------------------------------------|
    |--------------------------------------------|

    solo2
    |-----------------|
    |-5252------------|
    |-----54242-------|
    |----------42-2-4-|
    |------------4----|
    |-----------------|

    solo3
    |------------------------10----------|
    |-8b10----10b12----13b15---13p10-----|
    |--------------------------------10--|
    |------------------------------------|
    |------------------------------------|
    |------------------------------------|

    |--------11-------------------12-------------------13-------------------|
    |-14b16-----14p11------15b17-----15p12------16b18-----16p13------17b19--|
    |-----------------11-------------------12-------------------13----------|
    |-----------------------------------------------------------------------|
    |-----------------------------------------------------------------------|
    |-----------------------------------------------------------------------|
    Transcribed by Pinter Denes

    Note: many 'pull off' and 'hammer on' notations were not signed...

    Lyrics:
    "Dead On Time" (May)

    Fool always jumping never happy where you land
    Fool got my bus'ness make your living where you can
    Hurry down the highway
    Hurry down the road
    Hurry past the people staring
    Hurry hurry hurry hurry

    Leave on time leave on time
    Never got your ticket but you leave on time
    Leave on time leave on time
    Gonna get your ticket but you leave on time
    Put it in your pocket but you never can tell

    Leave on time leave on time
    Shake that rattle gonna leave on time
    Leave on time leave on time
    Fight your battle but you leave on time
    Leave on time leave on time
    Never got a minute no you never got a minute
    No you never never got on no matter

    Fool got no bus'ness hanging round and telling lies
    Fool you got no reasons but you got no compromise
    Stamping
    Gotta get out gotta get out gotta get out
    Oh you know I'm going crazy

    Leave on time leave on time
    Gotta get ahead but you leave on time
    Leave on time leave on time
    Gonna head on ahead but you leave on time
    Leave on time leave on time
    You're running in the red but you never can tell

    Leave on time leave on time
    Gotta get rich gonna leave on time
    Leave on time leave on time
    But you can't take it with you when you leave on time
    Leave on time leave on time
    Got to keep yourself alive gotta leave on time
    Gotta leave on time leave on time
    Dead on time
    'You're Dead'




    Дискография




    СТАТЬИ


    BY QUEEN INC © 2017