Понедельник, 23.10.2017, 14:18
| RSS
Главная |
Меню сайта

Rambler's Top100



    Dead On Time1 Тип: басс табулатура


    bass

    |---------------------|----7-5---------------------------------|--------------|
    |---------------------|--------7-----3-------------------------|--------------|
    |---------------------|-5--------555----5--3-----3-5-5--/13--\-|-2---2222/14--|
    |-5-----555--5555555--|-----------------------5----------------|--------------|


    |---------------------------------|---------------------------------|
    |---------4-2---2---2-4-----------|---------4---4-2---2-4-4---------|
    |-------------4-----------2---4---|-------------------------2---4-4-|
    |-2---2---------------------------|-2---2---------------------------|

    |---------------------------------|---------------------------------|
    |---------4---4-2---2-4-4---------|---------4---4-2---2-4-----------|
    |-------------------------2-2-4-4-|-------------------------2-2-4-4-|
    |-2---2---------------------------|-2---2---------------------------|

    |-------------2------------------------------------|
    |-----2---4---------------------7---------------7--|
    |-4------------------------7--9------------7--9----|
    |-----------------5--/9---9---------5--/9----------|

    |---------------------------------|---------------------------------|
    |---------4---4-2---2-4-4---------|---------4---4-2---2-4-----------|
    |-------------------------2---4---|-------------------------2---4---|
    |-2---2---------------------------|-2---2---------------------------|

    |------------------------------------------------------------------|
    |------------------------------------------------------------------|
    |-2---2---2---2-----------2---2---2---2---------------2---22---2---|
    |-----------------2-2-2-----------------2---2---2-2----------------|

    |------------------------------------|
    |------------------------------------|
    |-----------7---7---5---5---55-------|
    |-5---5---5--------------------7--5--|

    |---------------------------------|-----------------------------------|
    |---------4---4-2---2-4-4---------|---------4---2/4-4-----------------|
    |-------------------------2---4---|-------------------2---4-----------|
    |-2---2---------------------------|-2---2-----------------------------|

    |---------------------------------------|
    |---------------------------------------|
    |-----4/7---5---------/7--5-------------|
    |-5-------------7-6-5--------7---2------|




    Дискография




    СТАТЬИ


    BY QUEEN INC © 2017