Понедельник, 23.10.2017, 14:28
| RSS
Главная |
Меню сайта

Rambler's Top100



    Don`t Stop Me Now1
     
    #----------------------------------PLEASE NOTE---------------------------------#
    #This file is the author's own work and represents their interpretation of the #
    #song. You may only use this file for private study, scholarship, or research. #
    #------------------------------------------------------------------------------#
    #

    Queen: Don't Stop Me Now
    Album: JAZZ

    guitar solo
    ------------------------------------------------------------------------------
    ---------10v-------------10v--10v----------------------------b11~-10----------
    -12b14---------14r_12p10------------14r12_p10-12-10-9-10v-------------12--10--
    ------------------------------------------------------------------------------
    ------------------------------------------------------------------------------
    ------------------------------------------------------------------------------

    |-----------------------------------|
    |-----------------------------------|
    |-12b14---b13--b14--b13--14r12------|
    |------------------------------10---|
    |-----------------------------------|
    |-----------------------------------|

    |-----------------------------------------------------|
    |-11b13v---13r11p10-b13---b13---13r11p10-11-10----10--|
    |----------------------------------------------12-----|
    |-----------------------------------------------------|
    |-----------------------------------------------------|
    |-----------------------------------------------------|
    *
    |------------------------------------------------------------|
    |-11--10-----------------------------------------------------|
    |----------12---10---12b14--12--b14--12--b14--12--14r12p10v--|
    |------------------------------------------------------------|
    |------------------------------------------------------------|
    |------------------------------------------------------------|

    |---------------------------------------|
    |---------------------------------------|
    |---------------------------------------|
    |---------------------------------------|
    |-10--12r10-8---8---10/12--10--10--8----|
    |------------------------------------10-|

    |-----------------------------------------------------|
    |-----------------------------------------------------|
    |-10h12p10----10---10h12p10----10---10h12p10----10v\~~|
    |----------12---------------12---------------12-------|
    |-----------------------------------------------------|
    |-----------------------------------------------------|

    |------------------------|-20-20-20-20-20-20-20-20-|
    |-b15-b15-b15-b15-b15v~~-|-22-22-22-22-22-22-22-22-|
    |------------------------|-------------------------|
    |------------------------|-------------------------|
    |------------------------|-------------------------|
    |------------------------|-------------------------|

    * on the Live Killers version:
    |-------------------------------------------------|
    |-13p10h13p10-------------------------------------|
    |-------------12p10h12p10-12p10-----------12-10---|
    |-------------------------------12---10-----------|
    |-------------------------------------------------|
    |-------------------------------------------------|
    Transcribed by Pinter Denes

    Lyrics and chords:

    F Am Dm
    Tonight, I'm gonna have myself a real good time

    Gm C F F7 Bb
    I feel alive, and the world, turning inside out, yeah

    Gm7 D7 Gm F C Gm
    and floating around in ecstasy, so don't stop me now

    Gm F C Gm7 C
    Don't stop me 'cause I'm having a good time, having a good time.

    F Am Dm
    I'm a shooting star leaping through the sky, like a tiger

    Gm C
    defying the laws of grafity

    F Am Dm
    I'm a racing car, passing by, like lady Godiva

    Gm C F
    I'm gonna go, go, go,there's no stopping me

    F7 Bb Gm7
    I'm burning through the sky, yeah, 200 degrees,

    D7 Gm
    that's why they call me Mister Fahrenheit

    D7 Gm
    I'm travelling at the speed of light.

    Bb F Bb G7 C
    I wanna make a supersonic man out of you

    F Gm Am Dm Gm7 C
    Don't stop me now, I'm having such a good time, I'm having a ball

    F Gm Am Dm Gm7 D7
    Don't stop me now, if you wanna have a good time, just give me a call

    Gm F C Gm7
    Don't stop me cause I'm having a good time
    (x13141)
    Gm F C Gm C Bbm7sus4
    Don't stop me, yes I'm having a good time, I don't want to stop at all



    I'm a rocket ship, on my way to mars, on a collision course
    I am a satellite, I'm out of control
    I'm a sexmachine, ready to reload, like an atombomb
    about to oh, oh, oh, oh, to explode
    I'm burning through ...N.C.

    Don't stop me, don't stop me, don't stop me, hey hey hey
    Don't stop me, don't stop me, oh oh oh
    Don't stop me, don't stop me, have a good time, good time
    Don't stop me, don't stop me, Ahhhhh

    (Guitar) = verse

    I'm burning through ...
    Don't stop me now ...

    Chords transcribed by Michael Bauer,



    Дискография




    СТАТЬИ


    BY QUEEN INC © 2017