Среда, 13.12.2017, 02:35
Привет!Гость | RSS
Главная | | Регистр | Вход
Меню сайта



Dont Try So Hard Тип: басс табулатура


Dont Try So Hard bass tab by Quenn tuneing is G,D,A,E

RATE THIS
let me know if it needs fixin


bass starts 2 verse when you hear the slide

|----------------9--9-------------------------------------14--------14----|
|---------------9-----9-------------12--------12-----12/14------------14--|
|-------------7---------70---7-0---12--------12---------------------------|12
|---7/0----0--------------------------------------------------------------|

chorus
|--------------------------------------------9--9---7---6-------------------|
|---------------------------------------------------------------------------|
|---5----5-5---5---5-5--532---2---20---0--3/7-----------------4/15----14----|
|0-----------5--------------2---2-------------------------------------------|

3rd verse
|--------------------------------------9------------------------------------|
|------------------------------------9---9-----------7--12/14------------14-|
|13--12---11--13-------------------7---------7-----7---------12-14-15--12---|
|----------------11--10---3---0--7------------0-1/5-------------------------|

vocal/ridge
|-------14---12---14-------------1214----------14/1614---------------------|
|12---12--12----14--12/---7----14-----14----14-----------------------------|
|----------------------------------------12------------7---7-7--777---7-7--|
|---------------------------10------------------------------------------0~-|

|----------------------------------------5-----5-----5---------3-----------|
|7----7-777-7---------------7-------------------------------------4--5-----|
|-------------7----5---5-5---54--4-4---4----3-----3---------------------6--|
|--------------------------------------------------------------------------|

guitar solo
|------------------------1214-14-14------11-7---------7------7-------------|
|---------------------14--------------7-------7-----7-------7-----7------7-|
|7---letring------------------------7-----------5------5-------------------|
|----------------5---------------------------------------------------------|

chorus
|----------------------------------------------------------------------------|
|---------------------------------------7------------------------------------|
|5---5-5---5-5----5-------------------7-----0/7----5----5----4---/-15--\--14-|
|----------------------7---7-7----5------------------------------------------|



Дискография




СТАТЬИ


BY QUEEN INC © 2017