Пятница, 22.09.2017, 21:40
| RSS
Главная |
Меню сайта

Rambler's Top100



    Dragon Attack Тип: аккорды


    E-------------------------------------
    B-------------------------------------
    G-------------------------------------
    D---------------3---3-----------------
    A-5---3---3---5---------5---3---3---5-
    E-------5---------------------5-------

    It's the same if you play it like this:

    E-------------------------------------
    B-------------------------------------
    G-------------------------------------
    D-0-----------0-3---3---0-----------0-
    A-----3-0-3-----------------3-0--3----
    E-------------------------------------

    Take me to the room where the red's all red
    Take me out of my head - 's what I said ...
    Take me to the room where the green's all green
    And fron what I've seen it's hot, it's mean ...

    F G
    Gonna use my stack
    F G
    It's gotta be Mack
    F G
    Gonna get em on the track
    F G
    Got a Dragon on my back

    Take me to the room where the beat's all round
    Gonna eat that sound - (yeah, yeah, yeah) ...
    Take me to the room where the black's all white
    And the white4s all back, take me back to the shack ...

    F G
    She don't take no prisoners
    F G
    Gonna give me the business
    F G
    Got a Dragon on my back
    F G
    It's a Dragon Attack

    Low Down - She don't take no prisioners
    Go Down - Gonna give me the business
    No time - Yeah chained to the rack!
    Show time - Got a Dragon on my back
    Show down - Go find another customer
    Slow down - I gotta make me way ...

    CHORDS:
    It's easier here use the G as
    G 355433
    F 13321




    Дискография




    СТАТЬИ

    шкафы цены http://v5mebel.ru .

    BY QUEEN INC © 2017