Пятница, 23.06.2017, 06:32
| RSS
Главная |
Меню сайта

Rambler's Top100



    Dragon Attack2 Тип: басс табулатура


    Queens Dragon Attack bass tab Rate it


    main play 4X's

    |-----------------------------------|
    |-----------3---3-------------------|
    |-5-3---3-5-------5-3---3-5---------|
    |-----5---------------5-------------|

    bridge
    |-------------7-----7---5---6-----------------7---------------------|
    |-----------------------------------------------------5-3-----------|
    |-13\\-5---5-5---5-----3---4---5-------5---5-5---5---5-----5-3-5----|
    |-------------------------------------------------------------------|
    repeated w/out the 13\\

    bass solo
    |------------------------------------------------------------------|
    |-----------3---3---------------------------3---3------------------|
    |-5-3---3-5-------5-3---3-5-------5-3---3-5-------5-----3-5--------|
    |-----5---------------5---------------5---------------5------------|

    |---------------------------------7-5---5-------------------------|
    |-----------3---5---------------------7---7-6-5-3---3-------------|
    |-5-5---3-5-------5-3---3-5---x-x-----------------5---5-3---3-5-3-|
    |-----5---------------5-----------------------------------5-------|

    |-----------------------------------------------------------------|
    |---3-------------------------------------------------------------|
    |-5---5-3---3---3-----3-4-5-------5-3---3-5-3---3-----3-4-5-------|
    |---------5-------5-5-----------------5-----------5-5-------------|

    |---------------------------------|
    |---------------------------------|
    |-5-3---3-5-3---3-3-3-3-4-5-------|
    |-----5---------------------------|


    guitar solo bass starts late in solo
    |-------------------------------------------------------------------------|
    |-------------------------------------------------------------------------|
    |----------5-5---------------------8-7-5-5-----------------------3---5-5--|
    |-3___/12\\----------------------------------------------------5---5------|

    bridge 2X's


    outro
    |------------------------------------------------------------------|
    |-----------------3-3----------------------------------------------|
    |-5-5---5-3-3---3-------------12\\-5-5-----3-3---------------------|
    |-------------------------------------------------3-3-----1-1--/---|

    |-------------------------------------------------------------------|
    |-----------------------5-----------------------------5-5-----3-3---|
    |-5-5---x-3-3---3---------------3-5-5---5-3-3---3-------------------|
    |-----------------3-3-----1-1-3-------------------3-3-----1-1-------|

    |-----------------------------------------------------------------|
    |---------------5-----5-5-------------------------5-5-5-5-3-3-3-3-|
    |-5-5---5-3-3-3-------------------5-5---5-3-3---3-----------------|
    |-----------------3-3-----1---1/3---------------------------------|

    |-----------------------------------------------------------------|
    |-------------------------------------------------------------3-3-|
    |-5-5-5-5-3-3---3-----------------5-5-----3-3---3-----------------|
    |-----------------3-3---3-1-----------------------3-3---3-1-1-----|

    |-----------------------------------------------------------------|
    |---------------5-----5-----3-3-3-----------------5-5-5-5-3-3-3-3-|
    |-5-5-----3-3---------------------5-5-5-5-3-3---3-----------------|
    |-----------------3-3---3-1---------------------------------------|

    |-------------------------------------7---------5------------------|
    |-----------------------5---3-2-3---------------------5-5---3---3--|b
    |-5-5-5-5-3-3---3-----------------5-------3-3----------------------|
    |-----------------3---3---1-----------------------3-------1--------|

    solo
    |-*---7-7---5------------------------------------------------------|
    |---------------5-------5---3-------------------------x-5-----3-3--|
    |-5-------3---------------------3-5---x-5-3-3---3------------------|
    |-----------------3-3-----1---1-------------------3-------1-1------|

    |-----------------------------------------------------------------|
    |-----------------------------3-3---------------5-------------3-3-|
    |-5---x-5-3-3---3-----------------5---5-5-3-3---------------------|
    |-----------------3-----3-1-1---------------------3-3---3-1-1-----|

    |-----------------------------------------------------------------|
    |---------------5-----------2-3-3---------------------5-5---3-----|
    |-5---5-5-3-3---------------------5---5-5-3-3---3-----------------|
    |-----------------3-----3-1-----------------------3-------1---1-3-|

    |-----------------------------------------------------------------|
    |-----------------5-5-5-5-3-3-3-3-----------------5-5-5-5---------|
    |-5---5-5-3-3---3-----------------5-5-5-5-3-3-3-3---------3-3-3-3-|
    |-----------------------------------------------------------------|

    |-----------------------------------------------------------------|
    |-----------------5-5-5-5-3-3-3-3---------------------------------|
    |-5-5-5-5-3-3-3-3-----------------5-5---5-3-3---3-------------3/5-|
    |-------------------------------------5-----------3-3-5-3-1-------|

    |-----------------------------------------------------------------|
    |-----------------------------3-3-----------------------------3-5-|
    |-5-5---5-3-3---3-5-3---3-5-------5-5-5-5-3-3---3-----------------|
    |-----5---------------5---------------------------3---5-3-1-------|

    |-----------------------------------------------------------------|
    |-----------------5-5-5-5---3-3-----------------------------------|
    |-5---5-5-3-3-3-3---------5-------5-3---5-3-3---3-5-3---3-5-------|
    |-------------------------------------5---------------5-----------|




    Дискография




    СТАТЬИ


    BY QUEEN INC © 2017