Понедельник, 21.08.2017, 00:10
| RSS
Главная |
Меню сайта

Rambler's Top100



    Flick Of The Wrist1 Тип: табулатура


    Flick Of The Wrist
    Words and music by Freddie Mercury
    Transcribed by Richard Boodell

    G
    |--------------------------15--------------------------------------|
    |-/13v----15b__16--13v--------15b__16--13v__\----------------------|
    |----------------------------------------------8r7p5---------------|
    |----------------------------------------------------7p5---5h7-----|
    |--------------------------------------------------------7-----0---|
    |------------------------------------------------------------------|

    0:20
    |------------------------------|
    |---------------10-------10\---|
    |-9--------------9--------9\---|
    |-7--------------7--------7\---|
    |-0------x-x-x-x-0-------------|
    |------------------------------|

    0:25
    |-----------------------------------------------------------------|----|
    |-----------------------------------------------------------------|----|
    |-----------------------------------------------------------------|-0/-|
    |-1---------------2---------------4-------------------------------|-/0-|
    |-----2---3---2-------2---3---2-------2---3---2---0---2h3-2---*---|----|
    |-----------------------------------------------------------------|----|

    0:37
    |-----2-------2-------2-----------|
    |-----3-------3-------3---1-------|
    |-9---2---9---2---9---2---2---4---|
    |-9---0---9---0---9---0---2---4---|
    |-7-------7-------7-------0---2---|
    |---------------------------------|

    (0:51)
    |---------------------------------------------|
    |---------------------------------------------|
    |---------------------------------------------|
    |-----9\8-9-----------9__\8-------------------|
    |-x-x-7\6-7-----------7__\6-9---9-9----7-9----|
    |-----------0-0-0-0-0-------7-7-7-7-10-----10-|


    |-----------------2---2-----2-------------------------------------|
    |-----1-----------3-3-3-----3-------------------------1-----------|
    |-2-------2-------2-------2-----------0-------0---0---0-------0-0-|
    |-2-----------2---0---------------0-----0---0-----2-------0-------|
    |-0-------------------------------2-------2-------3-------2-------|
    |---------------------------------3-------------------------------|

    1:02
    |---------------------------------|-----------------------------------|
    |---------------------------------|-----------------------------------|
    |-----5-5-5-5---5-------5---___---|-----5-5-5-5-----------------___---|
    |-----5-5-5-5---5-------5---7p5---|-----5-5-5-5---------------5-7p5---|
    |-0-0---------------5-----------7-|-0-0-----------5---6---7---------7-|
    |---------------------------------|-----------------------------------|

    |------------------------------------------------------|
    |------------------------------------------------------|
    |-----5-5-5-5---7---5---7---7p5-----------------9-9\---|
    |-----5-5-5-5---7---5---7---7p5-----------------9-9\---|
    |-0-0---------0------------------3----4----5----7-7\---|
    |------------------------------------------------------|

    |---------------------------|
    |------------10------10__\--|
    |------------9--------9__\--|
    |-7----------7--------7__\--|
    |-0-------000-------00------|
    |---------------------------|

    riff(0:25)
    riff(0:37)
    riff(0:51)

    G C G CG C G

    solo (1:51)
    |---------------15-18p15-18p15-18p15-18--18b20___r18-15---------|
    |-18b20vv----18----18p15-18p15-18p15-----------------15-18b20---|
    |---------------------------------------------------------------|
    |---------------------------------------------------------------|
    |---------------------------------------------------------------|
    |---------------------------------------------------------------|

    |-15p12-----------------------------------13b15---b15-b15---------|
    |-------15p12-15p12-15---15b17v----15v----------------------------|
    |-----------------------------------------------------------------|
    |---------------------------------------------------------15b17---|
    |-----------------------------------------------------------------|
    |-----------------------------------------------------------------|

    |------------------------------------------------------------------|
    |------------------------------------------------------------------|
    |----12----------12-14-12-14--15--b17___r15p12-14p12-14p12-14b16---|
    |-15----15-12-15---------------------------------------------------|
    |------------------------------------------------------------------|
    |------------------------------------------------------------------|

    |-------------------------------------------------------------------------|
    |------_____--------------------------------------------12----12h15p12-15-|
    |-b16r-14p12----------12b---14-12-14b16r14b16----b16r14----15-------------|
    |------------14-12--------------------------------------------------------|
    |------------------10-----------------------------------------------------|
    |-------------------------------------------------------------------------|

    |---------------------------------12-14-15-b17vv-----------------------|
    |-15b17----b16--b17-15-b17--15-15--------------------12-15p12-15b17v---|
    |----------------------------------------------------------------------|
    |----------------------------------------------------------------------|
    |----------------------------------------------------------------------|
    |----------------------------------------------------------------------|

    |-----------------------------------------------------------------------15b17_|
    |-b17r__15-15b__17-15b17---15---b17rb17---15p12-15p12----12-------------------|
    |-----------------------------------------------------15----15p14p12----------|
    |--------------------------------------------------------------------14-------|
    |-----------------------------------------------------------------------------|
    |-----------------------------------------------------------------------------|


    |_r15p12-15p12----12---------|
    |--------------15----15b17---|
    |----------------------------|
    |----------------------------|
    |----------------------------|
    |----------------------------|

    |-------------------------------------------------------------------|
    |-15b17___rp13-15b17___rp14-15--17b19--b19--b19--b19r17p15----15----|
    |----------------------------------------------------------16-------|
    |-------------------------------------------------------------------|
    |-------------------------------------------------------------------|
    |-------------------------------------------------------------------|

    |---------------------------17--15--14--14--12-------------|
    |-15b17___rp13-15b17___rp14--------------------15p12-------|
    |----------------------------------------------------14v---|
    |----------------------------------------------------------|
    |----------------------------------------------------------|
    |----------------------------------------------------------|

    |----------------------------------------------------------------------|
    |-15b17___-15b17___rp14-15---16r__15-----------------------------------|
    |--------------------------------------15r__14-------------------------|
    |------------------------------------------------12--14----------------|
    |--------------------------------------------------------12--14--10v\--|
    |----------------------------------------------------------------------|

    2:06
    |-------|---------------------------------|----|
    |-------|---------------------------------|----|
    |-------|---------------------------------|-0/-|
    |-------|----------------------------5----|-/0-|
    |-------|------------------5---6---7---7\-|----|
    |-3-2-1-|-0-3---5---6---7-----------------| 2X |

    |---------------------------------------------------|
    |---------------------------------------------------|
    |---------------------------------------------9-9\--|
    |---------------------------------------------9-9\--|
    |-3---4---5-------3---4---5-------3---4---5---7-7\--|
    |---------------------------------------------------|

    riff(0:25)

    2:42
    |-----2-------2-3p2-----2--------------------------|
    |-----3-------3----3----3------------------3-------|
    |-9---2---9---2-----9---2---9-------2222--2-42___--|
    |-9---0---9---0-----9---0---9---0000000004----420--|
    |-7-------7---------7-------7----------------------|
    |-0-------0---------0-------0----------------------|


    Am D G C G/B

    |-------------------------------------|-----------------------------------|
    |-------------------------------------|-------------------------___-------|
    |-----5-5-5-5---------------___-------|-----5-5-5-5---7---5-----7p5---5-7-|
    |-----5-5-5-5---------------7p5---5-7-|-----5-5-5-5---7---5---5-7p5---5-7-|
    |-0-0-----------5---6---7-------7-----|-0-0---------0---------------7-----|
    |-------------------------------------|-----------------------------------|

    |-------5---------------5-------------------------------|
    |-------5---------------5-------------------------------|
    |---5-------------5-5----------------------------9-9\---|
    |---5-------------5-5----------------------------9-9\---|
    |-0---------0-0-0-0-------0-0-0-0-3----4----5----7-7\---|
    |-------------------------------------------------------|




    Дискография




    СТАТЬИ


    BY QUEEN INC © 2017