Четверг, 27.04.2017, 00:20
| RSS
Главная |
Меню сайта

Rambler's Top100



    For Everyone Тип: аккорды


    Queen - This could be heaven for everyone

    Intro:
    C Bb F
    This could be heaven
    Bb C
    This could be heaven
    Bb F
    This could be heaven
    Bb C
    This could be heaven
    (C) Bb
    This could be heaven
    F
    This could be heaven for everyone
    Bb C
    This could be heaven
    (C) Bb
    This could be heaven
    F
    This could be heaven for everyone

    Verse 1:

    Bb C Bb F
    In these days, of cool reflection
    Bb C
    You come to me e--5--3----------|
    B--------6--5----|
    Bb F
    And everything seems alright
    Bb C Bb F
    In these days of cold affactions,
    Bb C Bb F
    You sit by me - and everything's fine


    C G/B
    This could be heaven for everyone
    D A/C#
    This world could be free, this world could be fun
    C G
    This could be heaven for everyone
    D A/C#
    This world could be free, this world could be one

    e---------8--10--12--13--8---------------|
    B--10--8---------------------4--3--1-----|


    Verse 2:

    In this world of cool deception
    Just your smile, can smooth my ride
    These troubled days of cool rejection, hmm
    You come to me, soothe my troubled mind


    C G/B
    This could be heaven for everyone
    D A/C#
    This world could be fed, this world could be fun
    C G
    This should be love for everyone, yeah
    D A/C#
    This world could be free, this world could be one
    C G/B
    We should bring love to our daughters and sons
    Bb F C Dm G F
    Love, love, love, this could be heaven for everyone


    You konw that
    Dm C/E F G
    This could be haeven for everyone
    Dm C/E F G
    This could be haeven for everyone
    Dm C/E D
    This could be haeven for everyone


    Solo:

    e-----------------------------------------------------|
    B-----------------------------------------------------|
    G-------------------4--5--4---------------------------|
    D--4--8--4/2--2--0-----------7--5--4----4--2--2--0----|
    A-----------------------------------------------------|
    E-----------------------------------------------------|

    e--------------------------------------|
    B--------------------------------------|
    G------------2-------------------------|
    D---0--2--4-----0--2--0--2--0--2--0----|
    A--------------------------------------|
    E--------------------------------------|

    e-------10--12--14--14--12--10--12--9------10--14--15--17--17--15--14---|
    B---10--------------------------------10--------------------------------|
    G-----------------------------------------------------------------------|
    D-----------------------------------------------------------------------|
    A-----------------------------------------------------------------------|
    E-----------------------------------------------------------------------|

    e---15--14--12-------12--14--16--16---14--12--14--16--17----------------|
    B--------------12-------------------------------------------------------|
    G-----------------------------------------------------------------------|
    D-----------------------------------------------------------------------|
    A-----------------------------------------------------------------------|
    E-----------------------------------------------------------------------|

    e---16--14---12---14---16---12---14---16---14---16---18---14---16---18--|
    B----------12---16---17---12---16---17---14---18---19---14---18---19----|
    G-----------------------------------------------------------------------|
    D-----------------------------------------------------------------------|
    A-----------------------------------------------------------------------|
    E-----------------------------------------------------------------------|

    D A/C#
    Listen, what people do to other souls
    E B
    They take their lives, destroy their goals
    F# C#/F
    Their basic pride and dignity
    E B
    Is stripped and torn shown on pity
    D E F#
    when this should be heaven for everyone


    C# B
    This could be heaven
    F# B
    This could be heaven
    C#
    This could be heaven........


    End:
    C#
    This could be heaven, for everyone
    B F#
    For everyone

    I guess I've got to explain some of the chords:

    A/C# x42220
    C/E 032010
    C# x46664
    C#/F 143121
    F# 244322
    G/B x20033




    Дискография




    СТАТЬИ


    BY QUEEN INC © 2017