Меню сайта



Gimme The Prize (solo) Тип: табулатура


Gimme The Prize solo
by Teppy & Roy



Guitar 1
1|---------------------------------------------------------|
2|----------11---------------------------------------------|
3|-10-11-13----13-11-10-11-10------------------------------|
4|----------------------------11-------11-13-11------------|
5|-------------------------------11-13----------13p-11-11--|
6|---------------------------------------------------------|
| Guitar 2 |
1|---------------------------------------------------------|
2|---------------------------------------------------------|
3|---------------------------------------------------------|
4|---------------------------------------------------------|
5|---------------------------------------------------------|
6|---------------------------------------------------------|


Guitar 1
1|!-1-2-4-6-4-2-1-2-1---------------------------------------|
2|!-------------------2------2-4-2--------------------------|
3|!---------------------1-3-------3p-1-1--------------------|
4|!---------------------------------------------------------|
5|!---------------------------------------------------------|
6|!---------------------------------------------------------|
| Guitar 2 |
1|-11-12-14-16-14-12-11-12-11------------------------------|
2|----------------------------12--------12-14-12-----------|
3|--------------------------------11-13----------13p-11-11-|
4|---------------------------------------------------------|
5|---------------------------------------------------------|
6|---------------------------------------------------------|


Guitar 2 only
1|---------16-18-19b-18-16-18-16-----------16-18-16--------|
2|-18-19------------------------18--18-19----------18-18b--|
3|---------------------------------------------------------|
4|---------------------------------------------------------|
5|---------------------------------------------------------|
6|---------------------------------------------------------|


1|-------16-18-16------------------------------------------|
2|-18-19----------19-18-19-18-----------14-16-14-----------|
3|----------------------------18--13-15----------15p-13-13-|
4|---------------------------------------------------------|
5|---------------------------------------------------------|
6|---------------------------------------------------------|


1|---------------------------------------------------------|
2|---------------------------------------------------------|
3|-15p-13-13--15p-13-13--15p-13-13--15p-13-13--15p-13-13---|
4|---------------------------------------------------------|
5|---------------------------------------------------------|
6|---------------------------------------------------------|





Дискография




СТАТЬИ

 
 

BY QUEEN INC © 2021