Вторник, 19.09.2017, 21:39
| RSS
Главная |
Меню сайта



Hammer To Fall Тип: табулатура


I saw this song in Total Guitar this month and since it isn't on this
site i'll put it in!

Queen - "Hammer to Fall"

E------------|--------------------|--------------------|-------------|
B------------|--2---3-------2-2-2-|-2------3-----2-2-2-|-2----3------|
G------2-2-2-|--2---2-------2-2-2-|-2------2-----2-2-2-|-2----2------|
D---x--2-2-2-|--2---4-------2-2-2-|-2------4-----2-2-2-|-2----4------|
A---x--0-0-0-|--0---0-------0-0-0-|-0------0-----0-0-0-|-0----0------|
E------------|--------------------|--------------------|-------------|

E---------|------------------|-|-------------|-----------------------|
B---5-5-5-|--5--/--2--2-2-2--|-|-2---3-------|--5-----2--------------|
G---4-4-4-|--4--/--2--2-2-2--|-|-2---2-------|--4-----2--------2-2---|
D---6-6-6-|--6--/--2--2-2-2--|-|-2---4-------|--6-----2--------2-2---|
A---0-0-0-|--0-----0--0-0-0--|-|-0---0-------|--0-----0---4-/--0-0---|
E---------|------------------|-|-------------|-----------------------|


This is the main riff in the song and i know that it's 100% right -
Enjoy!




Дискография




СТАТЬИ


BY QUEEN INC © 2017