Четверг, 27.04.2017, 11:57
| RSS
Главная |
Меню сайта

Rambler's Top100



    Headlong1 Тип: басс табулатура


    intro 1st Chorus
    G|-----------------|-----------------|-----------------|--------------|-----------------|-----------------|
    D|-----------------|-----------------|-----------------|0-------------|-----------------|-----------------|
    A|-----------------|-----------------|-----------------|--------------|-----------------|-----------------|
    E|---------------0-|1----------------|--------3--------|--------------|-----------------|-----------------|

    G|-----------------|-----------------|-----------------|-----------------|----------------|----------------|
    D|-----------------|-----------------|-----------------|-----------------|----------------|----------------|
    A|-----------------|-----------------|-----------------|-----------------|5-5-5-5-5-5-5-5-|5-5-5-5-5-5-5-5-|
    E|-----------------|-----------------|-----------------|-----------------|----------------|----------------|


    G|----------------|----------------|----------------|-----------------|-----------------|----------------|
    D|----------------|----------------|----------------|-----------------|-----------------|----------------|
    A|5-5-5-5-5-5-5-5-|5-5-5-5-5-5-5-5-|5-5-5-5-5-5-5-5-|-----------------|-----------------|5-5-5-5-5-5-5-5-|X2
    E|----------------|----------------|----------------|-----------------|-----------------|----------------|

    G|---------------|--------------|----------------|--------------|--------------|---------------|
    D|*-0--0--0--0--*|0--0--0-0--0--|0-0-0-0-0-0-0-0-|---0--0-0-0-0-|0--0-0-0--0---|---------------|
    A|---------------|--------------|----------------|--------------|------------2-|3--3-3-3-3-3-2-|
    E|*-------------*|--------------|----------------|3-------------|--------------|---------------|


    G|-------------|---------------|----------------|----------------|----------------|------------|
    D|-------------|---------------|----------------|--5-----5-------|----5-----5-----|5-----5-----|
    A|-------------|5--5-5-5-5-5-5-|5-5-5-5-5-5-5-7-|8---7-8---7-8-5-|7-8---7-8---7-8-|--7-5-------|
    E|3--3--3--8\--|---------------|----------------|----------------|----------------|------------|


    G|------------|---------------|----------------|----------------|----------------|----------------|
    D|5--5--5-----|---------------|--------5-------|----------------|----------------|----------------|
    A|---------8--|5--8-5-5-5-8-5-|5-5-8-5---5-8-5-|5-5-8-5-8-5-5-5-|5-5-8-5-8-5-5---|3-3-3-3-3-3-3-3-|
    E|------------|---------------|----------------|----------------|--------------5-|----------------|


    G|----------------|----------------|---------------|----------------|----------------|----------------|
    D|----------------|----------------|---------------|----------------|----------------|----------------|
    A|2-2-2-2-2-2-2-3-|5-5-8-5-8-5-5-5-|5-5-8-5-8-5-5--|3-3-3-3-3-3-3-3-|2-2-2-2-2-2-2-2-|----------------|
    E|----------------|----------------|---------------|----------------|----------------|5-5-5-5-5-5-5-5-|

    G|----------------|-------------------|----------------|----------------|----------------|------------|
    D|7-7-7-7-7-7-7-7-|*---------------*--|----------------|----------------|----------------|----------0-|let
    A|----------------|-----------------X3|----------------|----------------|----------------|------------|ring
    E|----------------|*5-5-5-5-5-5-5-5*--|3-3-3-3-3-3-3-3-|2-2-2-2-2-2-2-2-|5-5-5-5-5-5-5-5-|3----1------|through

    next bar

    G|-----------|----------------|----------------|--------------|--------------|-------------|-------------|
    D|--0--0--0--|*-0--0--0-0-0*--|3---3---3---0-0-|---0--0-0-0-0-|----------0-0-|---0--0------|-------------|
    A|-----------|--------------X3|--5---5---5-----|--------------|--------------|---------5-7-|8--8--8--8-8-|
    E|-----------|*------------*--|----------------|3-------------|3--3--1-3-----|3------------|-------------|


    G|--------------|------------|--------------|7-7-7-7-7-7-7-7-|7---5--------|--------------------|
    D|5--5--5--10\--|------------|--------------|----------------|-5s7-7-5-----|*-----------------*-|
    A|--------------|5--5--5--5--|5-5-5--5--5-5-|----------------|---------8-7-|--5-5-8-5-8-5-5-5-X3|
    E|--------------|------------|--------------|----------------|-------------|*-----------------*-|


    G|--------------|------------------|----------------|----------------|------------------|----------------|
    D|-----------5--|*----------------*|----------------|----------------|*----------------*|----------------|
    A|8-5-8--8-5----|--5-5-5-5-5-5-5-5-|3-3-3-3-3-3-3-3-|2-2-2-2-2-2-2-2-|--5-5-5-5-5-5-5-5-|3-3-3-3-3-3-3-3-|
    E|--------------|*----------------*|----------------|----------------|*----------------*|----------------|


    G|-----------------|----------------|----------------|------------------|----------------|----------------|
    D|-----------------|----------------|7-7-7-7-7-7-7-7-|*----------------*|7-7-7-7-7-7-7-7-|----------------|
    A|2-2-2-2-2-2-10\--|----------------|----------------|------------------|----------------|----------------|
    E|-----------------|5-5-5-5-5-5-5-5-|----------------|*-5-5-5-5-5-5-5-5*|----------------|3-3-3-3-3-3-3-3-|


    G|----------------|----------------|------------|0--------------|-------------|----------------|
    D|----------------|----------------|0--0--0--0--|--3--0-3-0-0-0-|0--0--0--0-2-|3-0-3-0-3-0-0-0-|
    A|----------------|----------------|------------|---------------|-------------|----------------|
    E|2-2-2-2-2-2-2-2-|5-5-5-5-5-5-5-5-|------------|3-1----1-------|-----------0-|1---1---1-------|


    G|--0---------|----------------|--0-----0-----0-|----0---0-------|------------|--0-----0-0---0-|
    D|0----0--0-2-|3-0-2-3-0-2-3-0-|3---0-3---0-3---|0-3---0---3-0-0-|*0--0--0--0*|3---0-3-----0---|
    A|------------|----------------|----------------|----------------|------------|----------------|
    E|--3-------0-|1---0-1---0-1---|1-3---1-3---1-3-|--1-3---3-1-----|*----------*|1-3---1-3-3---3-|


    G|0---0-0---0-0---|0-0---0-0---0-0-|--0-0---0-------|----------|------------|-----------|5--4--2-----|
    D|--3-----3-----3-|----3-----3-----|3-----3---3-0-0-|----------|------------|0----------|---------3--|
    A|----------------|----------------|----------------|----------|------------|-----------|------------|
    E|3-1-3-3-1-3-3-1-|3-3-1-3-3-1-3-3-|1-3-3-1-3-1-----|let-ring--|let-ring----|-----------|------------|

    Guitar Solo
    G|-------------|---------------|----------------|------------------|----------------|----------------|
    D|0--0-------0-|0-0-0-0-0-0-0--|*-----------*---|*-0-0-0-0-0-0-0-0*|----------------|----------------|
    A|-------------|---------------|--------------X4|------------------|3-3-3-3-3-3-3-3-|2-2-2-2-2-3-3-3-|
    E|-------------|---------------|*-----------*---|*----------------*|----------------|----------------|

    G|------------------|----------------|----------------|----------------|----------------|----------------|
    D|*-0-0-0-0-0-0-0-0*|----------------|----------------|----------------|----------------|----------------|
    A|------------------|3-3-3-3-3-3-3-3-|2-2-2-2-2-2-2-2-|----------------|----------------|----------------|
    E|*----------------*|----------------|----------------|5-5-5-5-5-5-5-5-|3-3-3-3-3-3-3-3-|5-5-5-5-5-5-5-5-|


    G|-------------|----------------|--------------|--------------|----------------|----------------|
    D|-------------|----------------|--------------|--------------|----------------|----------------|
    A|-------5-----|----------------|-----------5/-|10\-----------|----------------|----------------|
    E|3-3-3-----3--|5-5-5-5-5-5-5-5-|3-3-3-3-3-----|--------------|2-2-2-2-2-2-2-2-|5-5-5-5-5-5-5-5-|

    G|--------------|0---------------|--------------|----------------|0-----------|----0-----------|
    D|0--0-0-0--0-3-|--0-3-0-3-0-0-0-|0--0-0-0--0-0-|3-0-3-0-3-0-0-0-|---0--0--2--|3-0---3-0-3-0-0-|
    A|--------------|----------------|--------------|----------------|------------|----------------|
    E|------------1-|3---1---1-------|--------------|1---1---1-------|3--------0--|1---3-1---1-----|


    G|--------------|0-----------|--------------|------------|-------------|----------------|
    D|3-------------|------------|*-0--0--0--0-*|------------|-------------|0-0-0-0-0-0-0-0-|
    A|--------------|------------|--------------|------------|-------------|----------------|X4
    E|1-------------|3-----------|*------------*|3--3--3--3--|1--1--1-3-1--|----------------|


    G|----------------|----------------|------------|--------------|-----------|-2-0---0-------|
    D|0-0-0-0-0-0-0-0-|0-0-0-0-0-0-0-0-|0-----------|--------------|*0---------|-----3---3-0-0*|
    A|----------------|----------------|---3--------|0-------------|---3-------|-0-------------|
    E|----------------|----------------|------------|---3--1-1-1-1-|*----------|---3-1-3-1----*|


    G|-------------|------0-----0---|---0-----0-----0-|0---0-0-0-------|------------|----------|----------|
    D|0------------|0-2-3---2-3---2-|*3---2-3---2-3--*|--3-------3-0-0-|----0-------|0---------|----------|
    A|---3---------|----------------|-----------------|----------------|------------|----------|----------|
    E|-------------|--0-1-3-0-1-3-0-|*1-3-0-1-3-0-1-3*|3-1-3-3-3-1-----|------------|-------5-\|10--------|




    Дискография




    СТАТЬИ


    BY QUEEN INC © 2017