Четверг, 22.06.2017, 19:38
| RSS
Главная |
Меню сайта

Rambler's Top100



    Im In Love With My Car
     
    #----------------------------------PLEASE NOTE---------------------------------#
    #This file is the author's own work and represents their interpretation of the #
    #song. You may only use this file for private study, scholarship, or research. #
    #------------------------------------------------------------------------------#
    #

    Queen: I'm in love with my car
    Roger Taylor/1975

    solos:
    ------------------------------------------------------------------------------
    ------------------------------------------2-3-5b7v----r5p3-5p2-3p2------------
    -------0h2h4p2~4-p0-----------------0h2h4---------------------------4p2-4p0h2-
    -0h2h4--------------2-----0-----2h4-------------------------------------------
    -----------------------4------------------------------------------------------
    ------------------------------------------------------------------------------
    37"
    |-------------------------------------------|
    |------------------------____________-------|
    |---------------14b16___r15b16r14p1214b16---|
    |------------14-----------------------------|
    |---------14--------------------------------|
    |-*-12-15-----------------------------------|

    |----------------------------------------|-----------------------------|
    |-15b17----15--13--12--------------------|-b20__18-b20--b19-b20__r-17--|
    |----------------------b15_r14p12--------|-----------------------------|
    |---------------------------------14-12--|-----------------------------|
    |----------------------------------------|-----------------------------|
    |----------------------------------------|-----------------------------|

    1'21"
    |-------------------------|-----------------------------------|
    |-------------------------|-----------------------------------|
    |-15__r14p12-14b15--------|-4p2----------------------7rrr4----|
    |--------------------14---|--------3p2p0-----4/5--------------|
    |-------------------------|--------------2--------------------|
    |-------------------------|-----------------------------------|

    |------------------------------------------|
    |------------------------------------------|
    |-7b9__-7--5--4--5--4~5--------------------|
    |------------------------7-5~7---5\4-------|
    |-------------------------------------7p5--|
    |------------------------------------------|

    1'43"
    |----------------------------------------------------|
    |----------------------------------------------------|
    |-----------------------2h4h5---4h5p4p2p0h2p0--------|
    |-2h4h5p4p2p0---0h2h4h5-----------------------4p2p0--|
    |----------------------------------------------------|
    |----------------------------------------------------|

    |---------------------------------------|---------------------------------|
    |---------------------------------------|-15--17v-----15--17--b19_r17-----|
    |----------------------------12h14b16v--|-----------------------------14--|
    |----------------------12h14------------|---------------------------------|
    |----------10--12--14-------------------|---------------------------------|
    |-8//1012-------------------------------|---------------------------------|

    |--------------------------------------------------17-----------|
    |-(17)b20---b19--17--15--17--17b19_r17p15--17--19------19b21v---|
    |---------------------------------------------------------------|
    |---------------------------------------------------------------|
    |---------------------------------------------------------------|
    |---------------------------------------------------------------|

    2'34
    |------------|-----------|--------------------|---------------------|
    |------------|-----------|--------------------|---------------------|
    |-0h2h4p2----|-----------|-p2h4p2p0-----------|-4h5p4p2p0h2h4p2p0---|
    |---------0--|-5p4p2p0---|------------3---0---|---------------------|
    |------------|-----------|--------------------|---------------------|
    |------------|-----------|--------------------|---------------------|

    |-------------------|
    |-5p3-5p3---3-------|
    |---------5---5b7---|
    |-------------------|
    |-------------------|
    |-------------------|

    -------------------------------------------------------------------------------
    ---------------------------------------------------------------------3---3-5b6v
    5----2---5p2-5p2-5p2-----------------------------------------------5---5-------
    ---------------------5p3-5p3---------------------------------6r5b6-------------
    -----------------------------5---5p3-5p3-------------3-5-3-5-------------------
    -----------------------------------------5p0-5-3-1-----------------------------

    two gtrs arr for one
    |-3-3----3-3--0-----0-2-2--|
    |-3-3----2-3--3--3--3-3-3--|
    |-0-0----2-2--2--2--2-2-2--|
    |-0-0----2-2--------0-0----|
    |-2-2----------------------|
    |--------------------------|

    Lyrics and chords:

    Intro: D

    Em G D
    The machine of a dream.
    C Em G
    Such a clean machine. When the pistons a pumpin',
    D C Em
    And the hubcaps all gleam. When I'm holding your wheel,
    G D
    All I hear is your gear, When my hand's on your grease gun,
    C
    Oh, it's like a disease son.


    Em G D C
    I'm in love with my car. Gotta feel for my automobile.
    Em G D C
    Get a grip on my boy racer rollerbar, Such a thril when your radials squeal


    A slide to B (4time) B sl C (4times)
    Told my girl I just had to forget her, Rather, buy me a new carburetor,
    So she made tracks saying this is the end now, Cars don't talk back,
    they're just four wheeled friends now

    D

    When I'm holding your wheel, All I hear is your gear,
    When I'm cruising in overdrive, Don't have to listen to no run of
    the mill talk jive.

    I'm in love with my car. Gotta feel for my automobile.
    I'm in love with my car. String back gloves in my automolove.



    Дискография




    СТАТЬИ


    BY QUEEN INC © 2017