Среда, 13.12.2017, 06:35
Привет!Гость | RSS
Главная | | Регистр | Вход
Меню сайта



It All Тип: басс табулатура


Song: I Want it All
Band: Queen


The song starts with the guitar, then :

INTRO
G|-----|-----|-----|-----|-----|-----|-------|-------|-------|-------|
D|-----|-----|-----|-----|-----|-----|-------|-------|-------|-------|
A|-2-2-|-----|-----|-2-2-|-----|-----|-2-0-2-|-------|-------|-2-2-0-|
E|-----|-3-3-|-5-5-|-----|-3-3-|-5-5-|-------|-3-2-3-|-5-3-5-|-------|

VERSE 1
G|-------|-------|-------|-------|-------|-------|-----------|-----------|
D|-------|-------|-------|-------|-------|-------|-----------|-----------|
A|-2-2-2-|-------|-------|-2-2-0-|-2-0-2-|-------|-----------|---2-2-2-0-|
E|-------|-3-2-3-|-5-5-5-|-------|-------|-3-2-3-|-5-3-5-5-5-|-5---------|

PRE-CHORUS
G|----------------|-------------|-------------|
D|--------0-4-0-2-|-0-0-2-2-0-2-|-2-2-4-4-0-0-|
A|-5---22---------|-------------|-------------|
E|----------------|-------------|-------------|

CHORUS
G|-------------------------------|
D|-------------------------------|
A|-2-0-2-|-------|-------|-2-2-0-| (Repeat this measure twice)
E|-------|-3-2-3-|-5-3-5-|-------|

VERSE 2
G|--------|--------|--------|----------|--------|------------|--------|-----|
D|--------|--------|--------|----------|--------|------------|--------|-----|
A|-2-2--2-|--------|--------|-2-2--0-0-|-2-2--2-|------------|--------|-2-2-|
E|--------|-3-3--3-|-5-5--5-|----------|--------|-2-3-3--2-3-|-5-5--5-|-----|

After VERSE 2, count to 3 then enter to the PRE-CHORUS in the 4th count.
Then go back to the CHORUS part. But in the second play, hold B(A string, 2nd
fret) when Freddie says "Now...!" (Before entering the bridge section
where Brian joins the song)

Play this part after the bridge ends :
G|-------|-------|-------|-------|-------|-------|-------|-------------|-------------|
D|-------|-------|-------|-------|-------|-------|-------|-------------|-------------|
A|-2-0-2-|-------|-------|-2-2-0-|-2-0-2-|-------|-------|-2--2--2-2-0-|-2--2--2-2-0-|
E|-------|-3-2-3-|-5-3-5-|-------|-------|-3-2-3-|-5-3-5-|-------------|-------------|

INTERLUDE (GUITAR SOLO)
G|------|------|------|------|----------------------------------------------------------|
D|------|------|------|------|---------------0-------0-------0-------0---0---0---0------|
A|-2(H)-|------|------|-2(H)-|-2-2-0-------2---2---2---2---2---2---2---2---2---2---2-2-0|
E|------|-3(H)-|-5(H)-|------|-------2-2-3-------3-------3-------3----------------------|
(Still continues...)
G|--------|--------|--------|--------|------|------|------|--------------|
D|--------|--------|--------|--------|------|------|------|--------------|
A|-2-2-2--|--------|--------|-2-2-0--|-2(H)-|------|------|-2-0-2-0-2(H)-|
E|--------|-3-3-3--|-5-5-5--|--------|------|-3(H)-|-5(H)-|--------------|

Now back to the PRE-CHORUS
Enter to the CHORUS part by pressing A(A string, open string) first.

OUTRO
G|----|----|---------------------------------------------------|
D|----|----|---------------------------------------------------|
A|-2--|-2--|-2---------2/14----14\2----2/14----14\2----2/14----|Fading Out...
E|----|----|---------------------------------------------------|



Дискография




СТАТЬИ


BY QUEEN INC © 2017