Суббота, 18.08.2018, 03:57
Привет!Гость | RSS
Главная | | Регистр | Вход
Меню сайта



Languge Тип: басс табулатура


Tabbed by Kyle Radford
Eb tuning

0:00
Gb|-----------------------------------------------|
Db|-----------------------------------------------|
Ab|--------5----7----5----7----5-----9--7--5-7-5-7|
Eb|0-0-5-7-----7----5----7----5---7---------------|

Gb|-----------------------------------------------|
Db|-----------------------------------------------|
Ab|--------5----7----5----7----5-----9--7--5-7-5-7|
Eb|0-0-5-7-----7----5----7----5---7---------------|

0:14
Gb|----------------------------------------------------------------|
Db|----------------------------------------------------------------|
Ab|--2-------2-------2-------2-------2-------2-------2-------2-----|
Eb|----4-2-----4-2-----4-2-----4-2-----4-2-----4-2-----4-2-----4-2-|

Gb|----------------------------------------------------------------|
Db|----------------------------------------------------------------|
Ab|----------------------------------2-------2-------2-------2-----|
Eb|--5-2-0---5-2-0---5-2-0---5-2-0-----4-2-----4-2-----4-2-----4-2-|

Gb|----------------------------------------------------------------|
Db|----------------------------------------------------------------|
Ab|----------------------------------5-2-0---5-2-0---5-2-0---5-2-0-|
Eb|--5-2-0---5-2-0---5-2-0---5-2-0---------------------------------|

Gb|----------------------------------------------------------------------|
Db|----------------------------------------------------------------------|
Ab|--3-------3-------3-------3----------7-5--7-5--7-5--5-5----7----5----7|
Eb|----5-3-----5-3-----5-3-----5-3---------------------------------------|

0:47
body language...(x3)
Gb|--------------------------------------------------------------------|
Db|--------------------------------------------------------------------|
Ab|--------------------------5----7-----5-----7-----5----9--7--5-7-5-7-|
Eb|------------------0-0-5-7----7-----5-----7-----5----7---------------|

1:03
Gb|----------------------------------------------------------------|
Db|----------------------------------------------------------------|
Ab|--2-------2-------2-------2-------2-------2-------2-------2-----|
Eb|----4-2-----4-2-----4-2-----4-2-----4-2-----4-2-----4-2-----4-2-|

Gb|----------------------------------------------------------------|
Db|----------------------------------------------------------------|
Ab|----------------------------------2-------2-------2-------2-----|
Eb|--5-2-0---5-2-0---5-2-0---5-2-0-----4-2-----4-2-----4-2-----4-2-|

Gb|----------------------------------------------------------------|
Db|----------------------------------------------------------------|
Ab|----------------------------------5-2-0---5-2-0---5-2-0---5-2-0-|
Eb|--5-2-0---5-2-0---5-2-0---5-2-0---------------------------------|

Gb|----------------------------------------------------------------------|
Db|----------------------------------------------------------------------|
Ab|--3-------3-------3-------3----------7-5--7-5--7-5--5-5----7----5----7|
Eb|----5-3-----5-3-----5-3-----5-3---------------------------------------|

Don't Talk
Body Languge x3

1:45
Gb|-----------------------------------------------|
Db|-----------------------------------------------|
Ab|--------5----7----5----7----5-----9--7--5-7-5-7|
Eb|0-0-5-7-----7----5----7----5---7---------------|

Gb|----------------------------------------------------------------|
Db|----------------------------------------------------------------|
Ab|--2-------2-------2-------2-------2-------2-------2-------2-----|
Eb|----4-2-----4-2-----4-2-----4-2-----4-2-----4-2-----4-2-----4-2-|

Gb|----------------------------------------------------------------|
Db|----------------------------------------------------------------|
Ab|----------------------------------2-------2-------2-------2-----|
Eb|--5-2-0---5-2-0---5-2-0---5-2-0-----4-2-----4-2-----4-2-----4-2-|

Gb|----------------------------------------------------------------|
Db|----------------------------------------------------------------|
Ab|----------------------------------5-2-0---5-2-0---5-2-0---5-2-0-|
Eb|--5-2-0---5-2-0---5-2-0---5-2-0---------------------------------|

Gb|----------------------------------------------------------------------|
Db|----------------------------------------------------------------------|
Ab|--3-------3-------3-------3----------7-5--7-5--7-5--5-5----7----5----7|
Eb|----5-3-----5-3-----5-3-----5-3---------------------------------------|

2:25
Gb|-------------------------------------------------------------------------|
Db|-----5-7---------------5-7---------------5-7---------------5-7-----------|
Ab|---7----------3-5----7----------3-5----7----------3-5----7----------3-5--|
Eb|------------5-----------------5-----------------5-----------------5------|


Gb|-------------------------------------------------------------------------|
Db|-----5-7---------------5-7---------------5-7---------------5-7-----------|
Ab|---7----------3-5----7----------3-5----7----------3-5----7----------3-5--|
Eb|------------5-----------------5-----------------5-----------------5------|


Gb|---------------------------------------------|
Db|-----5-7---------------5-7---------------5-7-|
Ab|---7----------3-5----7----------3-5----7-----|
Eb|------------5-----------------5--------------|

3:05

Gb|----------------------------------------------------------------|
Db|----------------------------------------------------------------|
Ab|--2-------2-------2-------2-------2-------2-------2-------2-----|
Eb|----4-2-----4-2-----4-2-----4-2-----4-2-----4-2-----4-2-----4-2-|

Gb|----------------------------------------------------------------|
Db|----------------------------------------------------------------|
Ab|----------------------------------2-------2-------2-------2-----|
Eb|--5-2-0---5-2-0---5-2-0---5-2-0-----4-2-----4-2-----4-2-----4-2-|

Gb|----------------------------------------------------------------|
Db|----------------------------------------------------------------|
Ab|----------------------------------5-2-0---5-2-0---5-2-0---5-2-0-|
Eb|--5-2-0---5-2-0---5-2-0---5-2-0---------------------------------|

Gb|----------------------------------------------------------------------|
Db|----------------------------------------------------------------------|
Ab|--3-------3-------3-------3----------7-5--7-5--7-5--5-5----7----5----7|
Eb|----5-3-----5-3-----5-3-----5-3---------------------------------------|

3:38
Gb|-----------------------------------------------|
Db|-----------------------------------------------|
Ab|--------5----7----5----7----5-----9--7--5-7-5-7|
Eb|0-0-5-7-----7----5----7----5---7---------------|

Gb|-----------------------------------------------|
Db|-----------------------------------------------|
Ab|--------5----7----5----7----5-----9--7--5-7-5-7|
Eb|0-0-5-7-----7----5----7----5---7---------------|

Gb|----------------------------------------------------------------|
Db|----------------------------------------------------------------|
Ab|--2-------2-------2-------2-------2-------2-------2-------2-----|
Eb|----4-2-----4-2-----4-2-----4-2-----4-2-----4-2-----4-2-----4-2-|

Gb|----------------------------------------------------------------|
Db|----------------------------------------------------------------|
Ab|--2-------2-------2-------2-------2-------2-------2-------2-----|
Eb|----4-2-----4-2-----4-2-----4-2-----4-2-----4-2-----4-2-----4-2-|

Gb|----------------------------------------------------------------|
Db|----------------------------------------------------------------|
Ab|--2-------2-------2-------2-------2-------2-------2-------2-----|
Eb|----4-2-----4-2-----4-2-----4-2-----4-2-----4-2-----4-2-----4-2-|

Gb|----------------------------------------------------------------|
Db|----------------------------------------------------------------|
Ab|--2-------2-------2-------2-------2-------2-------2-------2-----|
Eb|----4-2-----4-2-----4-2-----4-2-----4-2-----4-2-----4-2-----4-2-|

Fade Out>>>>>>>>>>>
Gb|----------------------------------------------------------------|
Db|----------------------------------------------------------------|
Ab|--2-------2-------2-------2-------2-------2-------2-------2-----|
Eb|----4-2-----4-2-----4-2-----4-2-----4-2-----4-2-----4-2-----4-2-|




Дискография




СТАТЬИ


BY QUEEN INC © 2018