Четверг, 21.09.2017, 18:51
| RSS
Главная |
Меню сайта

Rambler's Top100



    Let Me Entertain You
     
    #----------------------------------PLEASE NOTE---------------------------------#
    #This file is the author's own work and represents their interpretation of the #
    #song. You may only use this file for private study, scholarship, or research. #
    #------------------------------------------------------------------------------#
    #

    Queen: Let Me Entertain You
    Mercury/1978/Jazz

    two guitars (both in the middle)
    ------------------------------------------------------------------------------
    ------------------------------------------------------------------------------
    -4---4p0---0-4---4-----0-4---4-*---0-4---4-----0-4---4------(0)-(0)-----------
    -2---2p0-----2---2p0-----2---2p0-----2---2p0---0-2---2p0---0-2---2p0-----5----
    ---------2-----------2p0---------2-----------2p0---------2p0---------2p0-5----
    -------------------------------------------------------------------------3----

    guitars turn panned
    -------------------------------------------------------------------
    -----------------------------------3---3-3-3-3---------------------
    -4-4---4-4---4-4-------0-4-4---4---0---0-0-0-0-4-----4-4---4-4-2---
    -2-2p0-2-2p0-2-2p0-------2-2p0-2p0-------------2---0-2-2p0-2-2-0---
    --------------------2----------------------------------------------
    -------------------------------------------------------------------

    -----------------------
    -----------------------
    ---0-------------------
    ---0-2p0---------------
    -2-------2p0-----------
    -------------3->>><<---

    riff A:
    |-------------------------------------------------------------------*
    |-----------------------------------3-------------------------------*
    0-4-4---4-4---4-----------4-4---4---0---------0-4-4---4-4---4-4-----*
    0-2-2p0-2-2p0-2-2p0-------2-2p0-2p0-------------2-2p0-2-2p0-2-2-0---*
    |---------------------2p0-------------------------------------------*
    |-------------------------------------------------------------------*

    *----------------------
    *----------------------
    *----------------------
    *---0-2p0--------------
    *-2-------2p0----------
    *-------------3->>><<--

    riff B:
    |-----------------------------------------------------------------------*
    |-----------------------------------------------------------------------*
    |-0-2p0-2-----0-2p0-2-----0-2p0-2-2p0-5b------2p0-0-2p0-2-----0-2p0-2---*
    |-0-2p0-2---2---2p0-2---2-0-2p0-2-2p0-5b------2p0-0-2p0-2---2-0-2p0-2---*
    |-----------------------------------------------------------------------*
    |-----------------------------------------------------------------------*

    *-----------------------------
    *-----------------------------
    *---0-2p0---------------------
    *-2-------2p0-----------------
    *-------------3--->>>>-3--2\--
    *-----------------------------

    riff C:
    |------------------------------------------------|
    |------------------------------------------------|
    |------------------------------------------------|
    |--------0--2-4---5\--4--4-----9-----------------|
    |-2---3---------------2--2-----7-----------------|
    |------------------------------0-------<<<<<<0---|

    |-------------------------------------------|
    |-___---------------------------------------|
    |-7h9--7--7---------------------------------|
    |--------9---8-7-5-7b__9---x-x--------------|
    |--------------------------x-x-9\-----------|
    |------------------------------7\-------x---|

    1'8"
    |----------------------------------|----------------------------|----|
    |----------------------------------|----------------------------|----|
    |-<<<-------------------------2----|----------------------------|-0/-|
    |-<<<-2p0-2p0---0-------------2----|----------------------------|-/0-|
    |-------------2---2p0-2p0-----0...-|----------------------------|----|
    |-------------------------3p0------|-5-5-3---3------5-5-3---3---|----|

    |---------------------------------|
    |---------------------------------|
    |---------------------------------|
    |---------------------------------|
    |---------------------------------|
    |-5-5-0---0---0---0---0---0---0---|


    riff A, riff B, riff C, X

    |-------------------------------------|
    |-___---------------------------------|
    |-7h9--7---7--------------------------|
    |---------9---8-7-5-7b9--b9--b9__r7p5-|
    |-------------------------------------|
    |-------------------------------------|

    |------------------------------------------------------|
    |----------------2-4-2---------------------------------|
    |------4-2-44----2-4-2---------------------------------|
    |------4-2-44----2-4-22--------------------------------|
    |----..------------------------------------------------|
    |-2...-------2...------2----222----222----222-2-22222--|

    A G F# B
    B|-12h13p12h13phphphph..|


    |----------------------------|
    |----------------------------|
    |------...0-2-2-0------------|
    riff A |riff B-----------2-2-0------|
    |-----------------------3----|
    |----------------------------|

    |--------------------------------------------------------------|
    |--------------------------------------------------------------|
    |--------------------------------------------------------------|
    |--------0--2-4---------0--2-4---------0--2-4-5\-4--4----------|
    |-2---3----------2---3----------2---3------------2--2----------|
    |-------------------------------------------------------0------|

    solo:
    |(0)---------------------------------------------------------------|
    |-x17b19----17b19----17b19---17---14-------------------------------|
    |------------------------------------16-14----------------14\tr\---|
    |--------------------------------------------16--14-x-(0)----------|
    |------------------------------------------------------------------|
    |------------------------------------------------------------------|

    |---------------------------------------|
    |---------------------------------------|
    |-x4------------------------------------|
    |-x4---2--------------------------------|
    |----------4-2-0---------------trem-----|
    |------------------2---2-2-2-0\A/C#\A---|

    |---------------------------------------------------------------|
    |---------------------------------------------------------------|
    |-14p11-14p11-14p11-14b16-14------16---16p14----14--------------|
    |-14p11-14p11-14p11-14b16-14------16---16p14-16-14-16---16p14---|
    |--------------------------------------------16----16---16p14---|
    |---------------------------------------------------------------|

    Transcribed by Pinter Denes

    Lyrics
    "Let Me Entertain You" (Mercury)

    Let me welcome you ladies and gentlemen
    I would like to say hello
    Are you ready for some entertainment?
    Are you ready for a show?
    Gonna rock gonna roll you
    Get you dancing in the aisles
    Jazz and a razzmatazz you
    With a little bit of style
    C'mon let me entertain you
    Let me entertain you let me entertain you

    I've come here to sell you my body
    I can show you some good merchandise
    I'll pull you and pill you
    I'll crueladeville you
    And to thrill you I'll use any device

    We'll give you crazy performance
    We'll give you grounds for divorce
    We'll give you piece de resistance
    And a tour de force of course

    We found the right location
    Got a lot of pretty lights
    The sound and amplification listen
    Hey if you need a fix if you want a high
    Stickells see to that
    With Elektra and EMI
    We'll show you where it's at
    So c'mon
    Let me entertain you let me entertain you
    Let me entertain you

    Just take a look at the menu
    We give you rock a la carte
    We'll breakfast at Tiffany's
    We'll sing to you in Japanese
    We're only here to entertain you

    If you wanna see some action
    You get nothing but the best
    The S and M attraction
    We've got the pleasure chest
    Chicago and New Orleans
    We get you on the line
    If you dig the New York scene
    We'll have a son of a bitch of a time
    C'mon
    Let me entertain you let me entertain you
    Let me entertain you tonight



    Дискография




    СТАТЬИ


    BY QUEEN INC © 2017