Вторник, 23.01.2018, 00:41
Привет!Гость | RSS
Главная | | Регистр | Вход
Меню сайта

Rambler's Top100



    Live With You Тип: басс табулатура


    I CAN'T LIVE WITH YOU BY QUEEN
    TEMPO - 184 bpm TUNEING G,D,A,E
    PLEASE RATE

    the bass
    chorus
    |--------------------------------------------------------------------------|
    |--------------------------------------------------------------------------|
    |-7-7--7--7--7-7-------------------9-6---7-7--7--7---7---7\-----------4--7-|
    |------------------5-----5--5-7--7-----7-----------7-------------5---------|

    G|---------------------------------------------------------------------------|
    D|---------------------------------------------------------------------------|
    A|---6--9-5--5-5-5-5-5-5---5--5-5-5------------4--5---4-5-6-7-7--7--7---7-|7-|
    E|7---------------------------------5---5-5--5-------------------------------|

    verse
    G|--------------------------------------------------------------------------|
    D|--------------------------------------------------------------------------|
    A|7-7--7--7--7-7---7---------------------------------------------1---2---3--|
    E|-------------------0-1-2----------0-1-2--------------0-1-2----------------|

    G|--------------------------------------------------------------------------|
    D|--------------------------------------------------------------------------|
    A|-4---7--7-------------------------------------------------------4---5---6-|
    E|---------5--5-----5--5---0-3-0-5--5-----5--5-----0-3-0-5--5---5--5--------|

    G|---------------------------------------------------------------------------|
    D|--5------------------------------------------------------------------------|
    A|7---7-3---3--3--3--3-3--5--5-5-5--5--5--3--3--3--3--3--3--3--3--5--5--5--5-|
    E|---------------------------------------------------------------------------|


    G|-------------------------------------------------------------------------|
    D|--47-------------------------------------------------------9-9--9---9--9-|
    A|5----5--53----3----3----5----5----5----2-2--2--2--2-2--2--2--\-----------|
    E|------------3----3----3----5----5----5-----------------------------------|

    G|-------------------------------------------------------------------|
    D|-------------------------------------------------------------------|
    A|--------5~~-----5----4~~---------4----3---------3----3---2---2---2-|
    E|7---7--------------------------------------------------------------|

    JUST PLAY THE A BUT 10X'S
    A|2------2-2-2--2-2-2--2-2-4----4--4-4-6------6--7--7----7--7---7-7--7--7-- 7--7--7


    G|---------------------------------------------------------------------|
    D|---------------------------------------------------------------------|
    A|7---7-7--7-------2---------------------7-7--7---7--7-7---------------|
    E|-----------2---2----3--3--3--3-7----7---------------------5--------7-|

    G|-------------------------------------------------------------------------|
    D|---------------6-7-------------------------------------------------------|
    A|5---5---5---5----------------4--5--6--7-7--7--7--7-7---------------------|
    E|-------------------5---5--5---------------------------5----5--7---7-7--7-|

    G|-----------------------------------------------------------2\7~~-------|
    D|--------------------------------------------0~~---------------------7\-|
    A|7-7--7---7--7-7----7\-------------2---2-3-4----------------------------|
    E|-------------------------5-----5---------------------------------------|

    G|-------------------------------------------------------------------------|
    D|-------------------------------------------------------------9-----------|
    A|0~~~~~~~---------------7--7---7--7-7~~~~~--------------6---9-------------|
    E|---------------------------------------------------------5------7------7-|

    G|-----------------------------------------------------------------------|
    D|-----------------------------------------------------------------------|
    A|7-7--7---7--7-7-------------7---------------4----6---5-6--7-7--7--7--7-|
    E|-----------------5---7---7------------7---5---5----5----7--7---7--7--7-|

    G|--------------------------------------------------------------------------|
    D|--------------------------------------------------------------------------|
    A|-------------------7--7-6-6--6-4--4-------------------------7-7--7---7--7-|
    E|5----5---6-7---7--7----------------7-7-7-5-5-5-5-5-7--7-7-7--7------------|

    G|--------------------------------------------------------------------9---8-|
    D|--------------------------------------------------------------------------|
    A|7----------------------7--7-6-6-6-4--4-------------4-4--4-2---2-4-5-6-----|
    E|---5----5--5-7--7-7--7-----------------7-7--7-5---5-----------------------|

    G|-------------------------------------------------------------------------|
    D|11----9------------------------------------------------------------------|
    A|--------0-----2---2-2--2-7--7-6-6--6-4--4--------------------------------|
    E|------------------------------------------7-7--7-5--5-4-4--4-7-7--7-7--7-|

    Repeat until fadeS out
    G|-----------------------------------------------|
    D|-----------------------------------------------|
    A|--7-7--7---7--7-7------------------------------|
    E|-------------------------5---5-5----7---7-7----|




    Дискография




    СТАТЬИ


    BY QUEEN INC © 2018