Понедельник, 26.06.2017, 04:57
| RSS
Главная |
Меню сайта

Rambler's Top100



    Lover Boy Тип: басс табулатура


    Queen's - Good Old Fashioned Lover Boy bass tab its tuned G,D,A,E

    rate it

    staccatto notes should all be denoted with . under

    1st verse thair is no bass

    chorus

    |--------------------------------------------------------------------|
    |--------------------------------------------------------------------|
    |-----6---6---5---5---3---3-----------6---6---5---5---3---3---2---2--|
    |-6---------------------------3---4----------------------------------|
    . . . . . . . . . . . . . .


    |-/5------/5---------------------------------7-5---|
    |------------------------------------------------8-|
    |----------------------------------6---------------|
    |------3-------3---1-------4---6-------------------|
    . . . .


    bridge 1

    |---------------------6-8----------------------------------------------3/8-|
    |-6--6--6--6--5--5--8-----6---6--4--4\------4--4\------4--4\---------------|
    |-------------------------------------2--2--------2--2-------2--2--1-1-----|
    |--------------------------------------------------------------------------|


    |3/8---8---8---8---------------------------------------------------|
    |------------------6-5-----5---------------6---8-------------------|
    |-----------------6----8-6-----3---8---8-----------6---------------|
    |--------------------------------------------------------------6---|
    . . . . . . . .


    chorus
    _____ _____
    |---------------------------------------------------------4\3/4-4\3/4-|
    |---------------------------------------------------------------------|
    |-6---6---5---5---3---3-----------6---6---5---5---3---3---------------|
    |-------------------------3---4---------------------------------------|
    . . . . . . . . . . . .


    ________
    |-------------------------------------------------8-----------12\11-12-|
    |-----------------------------------------------8----------------------|
    |-3-------3-----------------------6------------------------------------|
    |-----3-------3---1-------4---6----------------------------------------|
    . . . .


    bridge 2
    _____ ________
    |-8_____________________________/10------------------10/13-12---17\16/17--\-|
    |--------------------------------------------------6------------------------|
    |------------------------------------------------8--------------------------|
    |---------------------------------------------------------------------------|


    |-------------------------------------------------------------___-----|
    |-------------------------------------------------------------6\5-3---|
    |-6-----------------------------------------------------------------3-|
    |-----------------6----------------1-------------mute-----------------|
    . . .

    |--------------___--------------___-------------------------|
    |--------------6\5--------------6\5-------------------------|
    |---------3----------------3--------------------------------|
    |-1---4------------1---4------------1-------4-------6-6-----|
    . . . . . .


    solo+chorus

    |-------------------------------------------------------------4-4-|
    |-----------------------------------------------------------------|
    |-6---6---5---5---3---3-----------6---6---5---5---3---3---2-------|
    |-------------------------3---4-----------------------------------|
    . . . . . . . . . . . . .

    |-5-------5\4/5-----------------------------13----\--|
    |-----------------------------------5----------------|
    |----------------------------------------------------|
    |-----3---------3---1-------4------------------------|
    . . .

    |---------------------------------|
    |---------------------------------|
    |-6---5---3-----------------------|
    |-------------3---1-------4---6---|


    verse

    |-8---8---8---8-----------------------------------------------____-______-|
    |-----------------6-5-----5---------------6---8---------------10\8-8h10p8-|
    |----------------6----8-6-----3---8---------------6-----------------------|
    |-------------------------------------------------------------------------|
    . . . . . . . . . . .

    |-8---8---8---8---------------------------------------------------|
    |-----------------6-5-----5---------------6---8-------------------|
    |----------------6----8-6-----3---8---8-----------6---------------|
    |-------------------------------------------------------------6---|
    . . . . . . . . . .

    chorus

    |-----------------------------------------------------------------|
    |-----------------------------------------------------------------|
    |-6---6---5---5---3---3-----------6---6---5---5---3---3---2---2---|
    |-------------------------3---4-----------------------------------|
    . . . . . . . . . . . . . .


    _____
    |-5-------5\4/5-------------13------15-15---------------------|
    |-------------------------------------------------------------|
    |---------------------------------------------6-------6---6---|
    |-----3---------3---1--------------------------------6-86-----|
    . . .




    Дискография




    СТАТЬИ


    BY QUEEN INC © 2017