Среда, 13.12.2017, 02:25
Привет!Гость | RSS
Главная | | Регистр | Вход
Меню сайта



Lover Boy (solo) Тип: табулатура


GOOD OLD FASHIONED LOVER BOY




Semplified guitar Solo (two guitar)


|--18-------------18b----------|----------------------------------------|
|------------------------------|----------20-19-20----------------------|
|------------------------------|----------------------------------------|
|------------------------------|-----------------------------13b--------|
|------------------------------|----------------------------------------|
|------------------------------|----------------------------------------|
| | |
|------------------------------|----------------------------------------|
|---------14------14b----------|----------------------------------------|
|---------12------14b----------|-12b-12-------------14b-14--------------|
|------------------------------|----------------------------------------|
|------------------------------|----------------------------------------|
|------------------------------|----------------------------------------|


|----------------------------------------------15-16-18b-18b-18b--------|
|--18-t19-18-t19-15-15-t16-t15--------15-16-18--------------------------|
|-------------------------------15-17-----------------------------------|
|-----------------------------------------------------------------------|
|-----------------------------------------------------------------------|
|-----------------------------------------------------------------------|
| |
|-----------------------------------------------------------------------|
|-----------------------------------------------------------------------|
|-----------------------------------------------------------------------|
|-----------------------------------------------------------------------|
|-----------------------------------------------------------------------|
|-----------------------------------------------------------------------|


|-----------------------------------------------------------------------|
|---------------12-15-13-15-13-12-13------------------------------------|
|------------12---------------------------------------------------------|
|-----------------------------------------------------------------------|
|-----------------------------------------------------------------------|
|-----------------------------------------------------------------------|
| |
|-----------------------------------------------------------------------|
|--8--7--6b-------------------------------------------------------------|
|-----------------------------------------------------------------------|
|-----------------------------------------------------------------------|
|-----------------------------------------------------------------------|
|-----------------------------------------------------------------------|


|--15-15-------15w-------|------------12b------6-8-10-11-15b------------|
|------------------------|--6-8-10-11-----------------------------------|
|------------------------|----------------------------------------------|
|------------------------|----------------------------------------------|
|------------------------|----------------------------------------------|
|------------------------|----------------------------------------------|
| | |
|------------------------|----------------------------------------------|
|---------13w------13w---|--6---------7--6-----8---------9--12----------|
|------------------------|--5---------6--5-----7---------8--11----------|
|------------------------|----------------------------------------------|
|------------------------|----------------------------------------------|
|------------------------|----------------------------------------------|


|--------------------------------------------|--------------------------|
|--18bs-17-16--16-t18----18bs-17-16--16-t18--|------------14-14-14-t17--|
|--------------------------------------------|--------------------------|
|--------------------------------------------|--------------------------|
|--------------------------------------------|--------------------------|
|--------------------------------------------|--------------------------|
| | |
|--------------------------------------------|--4s--8s--11s--15b--------|
|--------------------------------------------|--4s--8s--11s--15b--------|
|--------------------------------------------|--------------------------|
|--------------------------------------------|--------------------------|
|--------------------------------------------|--------------------------|
|--------------------------------------------|--------------------------|



More semplified guitar Solo


|--18-------------18b----------|----------------------------------------|
|------------------------------|----------20-19-20----------------------|
|------------------------------|----------------------------------------|
|------------------------------|-----------------------------13b--------|
|------------------------------|----------------------------------------|
|------------------------------|----------------------------------------|
| | |
|------------------------------|----------------------------------------|
|---------14-------------------|----------------------------------------|
|---------12-------------------|-12b-12-------------14b-14--------------|
|------------------------------|----------------------------------------|
|------------------------------|----------------------------------------|
|------------------------------|----------------------------------------|


|----------------------------------------------15-16-18b-18b-18b--------|
|--18-19-19-18-15-15-t16-t15----------15-16-18--------------------------|
|-------------------------------15-17-----------------------------------|
|-----------------------------------------------------------------------|
|-----------------------------------------------------------------------|
|-----------------------------------------------------------------------|
| |
|-----------------------------------------------------------------------|
|-----------------------------------------------------------------------|
|-----------------------------------------------------------------------|
|-----------------------------------------------------------------------|
|-----------------------------------------------------------------------|
|-----------------------------------------------------------------------|


|-----------------------------------------------------------------------|
|---------------12-15-13-15-13-12-13------------------------------------|
|------------12---------------------------------------------------------|
|-----------------------------------------------------------------------|
|-----------------------------------------------------------------------|
|-----------------------------------------------------------------------|
| |
|-----------------------------------------------------------------------|
|--8--7--6b-------------------------------------------------------------|
|-----------------------------------------------------------------------|
|-----------------------------------------------------------------------|
|-----------------------------------------------------------------------|
|-----------------------------------------------------------------------|


|--15b---------15b-------|------------12b------6-8-10-11-15b------------|
|------------------------|--6-8-10-11-----------------------------------|
|------------------------|----------------------------------------------|
|------------------------|----------------------------------------------|
|------------------------|----------------------------------------------|
|------------------------|----------------------------------------------|
| | |
|------------------------|----------------------------------------------|
|---------13b------13b---|--6------------------8------------------------|
|------------------------|--5------------------7------------------------|
|------------------------|----------------------------------------------|
|------------------------|----------------------------------------------|
|------------------------|----------------------------------------------|


|--------------------------------------------|--------------------------|
|--18-17-16--16-t18----18-17-16--16-t18------|--------------------------|
|--------------------------------------------|--------------------------|
|--------------------------------------------|--------------------------|
|--------------------------------------------|--------------------------|
|--------------------------------------------|--------------------------|
| | |
|--------------------------------------------|--4s--8s--11s--15s--------|
|--------------------------------------------|--------------------------|
|--------------------------------------------|--------------------------|
|--------------------------------------------|--------------------------|
|--------------------------------------------|--------------------------|
|--------------------------------------------|--------------------------|


Note:

b: Bending
t: Tapping
s: Slide (manual or with a slide)
w: Whua Whua Pedal effect.




Дискография




СТАТЬИ


BY QUEEN INC © 2017