Воскресенье, 25.06.2017, 18:39
| RSS
Главная |
Меню сайта

Rambler's Top100



    Make Love Тип: басс табулатура


    Queen's - Get Down Make Love bass tab is tuned G,D,A,E

    Rate It

    |----8-----8--------8-----8--------8-----8---------8-----8---------8-----8--|
    |---------------------------------------------------------------------------|
    |-6-----6--------6-----6--------6-----6---------6-----6---------6-----6-----|
    |---------------------------------------------------------------------------|


    |----8-----8---------8-----8---------8-----8---------8-----8---------8-----8-|
    |----------------------------------------------------------------------------|
    |-6-----6---------6-----6---------6-----6---------6-----6---------6-----6----|
    |----------------------------------------------------------------------------|


    |----8-----8---------8-----8--------8-----8---------8-----8--------8-----8-|
    |--------------------------------------------------------------------------|
    |-6-----6---------6-----6--------6-----6---------6-----6--------6-----6----|
    |--------------------------------------------------------------------------|


    |----8-----8---------8-----8---------8-----8---------8-----8---------8-----8-|
    |----------------------------------------------------------------------------|
    |-6-----6---------6-----6---------6-----6---------6-----6---------6-----6----|
    |----------------------------------------------------------------------------|


    |-----------------12-12-12-10----------------------12-12-12-10------|
    |--------------5--------------12-10------------5---------------12---|
    |--------------------------------------------5----------------------|
    |-3--3--3--3-3----------------------3--3--3-------------------------|


    |----------------12-12-12-10---------12--12-10----------------------|
    |------------5---------------12----------------12-10----------------|
    |----------5--------------------10----------------------------------|
    |-3--3--3--------------------------------------------3-----3-----3--|

    play 2 times
    |---8-----8---------8-----8---------8-----8---------8-----8---------8-----8-|
    |---------------------------------------------------------------------------|
    |6-----6---------6-----6---------6-----6---------6-----6---------6-----6----|
    |---------------------------------------------------------------------------|

    |---8-----8------8-----8------8-----8------8-----8-------8-----8------8----8-|
    |----------------------------------------------------------------------------|
    |6-----6------6-----6------6-----6------6-----6-------6-----6------6-----6---|
    |----------------------------------------------------------------------------|


    |-----------------12-12-12-10----------------------12-12-12-10------|
    |--------------5--------------12-10------------5---------------12---|
    |--------------------------------------------5----------------------|
    |-3--3--3--3-3----------------------3--3--3-------------------------|


    |----------------12-12-12-10---------12--12-10----------------------|
    |------------5---------------12----------------12-10----------------|
    |----------5--------------------10----------------------------------|
    |-3--3--3--------------------------------------------3-----3-----3--|

    play 2X's
    |----------------------------------------------|
    |----------------------------------------------|
    |----------------------------------------------|
    |-0------0------0------0------0----------------|8MoreTimes"


    |-------------------------------------------------------------|
    |-------------------------------------------------------------|
    |-------------------------------------------------------------|
    |-0------0------0------0------0------0------0------0------0---|


    |----8-----8---------8-----8---------8-----8--|
    |---------------------------------------------|
    |-6-----6---------6-----6---------6-----6-----|
    |---------------------------------------------|


    |-----------------12-12-12-10----------------------12-12-12-10-------|
    |--------------5--------------12-10------------5---------------12----|
    |--------------------------------------------5-----------------------|
    |-3--3--3--3-3----------------------3--3--3--------------------------|


    |----------------12-12-12-10---------12--12-10-----------------------|
    |------------5---------------12----------------12-10-----------------|
    |----------5--------------------10-----------------------------------|
    |-3--3--3--------------------------------------------3-----3-----3---|



    Дискография




    СТАТЬИ


    BY QUEEN INC © 2017