Суббота, 25.11.2017, 12:15
Привет!Гость | RSS
Главная | | Регистр | Вход
Меню сайта

Rambler's Top100



    Me Now (solo) Тип: табулатура


    Band - Queen
    Song - Dont Stop Me Now (SOLO)
    Album - Jazz
    Tabber - Mobscene96
    Tuning - Standard (E,A,D,G,B,E)

    This solo is 100% correct. Use full distortion to give the right effect.

    E---------------------|-------------------------|-------------------------|
    B---------------------|-------------------------|--------------------11---|
    G--12b----12b(12)--10-|--12b---12b---12b(12) 10-|--12--10--9--10---X------|
    D---------------------|-------------------------|----------------X--------|
    A---------------------|-------------------------|-------------------------|
    E---------------------|-------------------------|-------------------------|

    E------------------------------|----------------------------|
    B--10--------------------------|----------------------------|
    G------X--12--X--10------X-12b-|--12b--12b--12b--12b(12)----|
    D----------------------X-------|-------------------------14-|
    A--------------------X---------|----------------------------|
    E------------------------------|----------------------------|

    E-------------------------------------------------|
    B------11b-----11b(11)---10--11b--11b--11b(11)--10|
    G----X--------------------------------------------|
    D--X----------------------------------------------|
    A-------------------------------------------------|
    E-------------------------------------------------|

    E-------------------------------|-----------------------------------|
    B------11-10------10------------|--11--10--X------------------------|
    G----X--------12--------------X-|-------------12---10-------X-12b---|
    D--X------------------------X---|-------------------------X---------|
    A-------------------------X-----|-----------------------X-----------|
    E-------------------------------|-----------------------------------|

    E-------------------------------------|
    B-------------------------------------|
    G--12-12b(12)----12b(12)---12b(12)-10-| Let the last note ring
    D-------------------------------------|
    A-------------------------------------|
    E-------------------------------------|

    Listen to the song to get the timing. Also, play along to make sure you have got it right.

    Im sorry I couldnt tab the next bit of the solo while Freddie is singing. With Freddies
    powering voice its hard to concentrate on Brian Mays guitar. I will add it when I find a
    version of this song.

    Please rate this tab!!!




    Дискография




    СТАТЬИ


    BY QUEEN INC © 2017