Пятница, 20.10.2017, 19:04
| RSS
Главная |
Меню сайта

Rambler's Top100



    Old Fashioned Lover Boy Тип: табулатура


    guitar solo:
    |----------|------18--------------18----------------|
    |-13-14-15-|----------------------------------------|
    |----------|----------------------------------------|
    |----------|----------------------------------------|
    |----------|----------------------------------------|
    |----------|----------------------------------------|
    |multitrack backing:
    |----------|----------------------------------------|
    |----------|-11-------------------------------------|
    |----------|-12--------12___b13--------10---9-10--7-|
    |----------|-13--------14___b15--------12--11-12--8-|
    |----------|-----------16___b17--------13--12-13-10-|
    |----------|----------------------------------------|

    |-----------15----15-------------------------__----------------------------------15--16-18-b20--b20--b20|
    |--------------18-----------------------b20_rbr18p16-15--16-18---------15-16--18------------------------|
    |---------------------------------------------------------------15-17-----------------------------------|
    |-------------------------------------------------------------------------------------------------------|
    |-------------------------------------------------------------------------------------------------------|
    |-------------------------------------------------------------------------------------------------------|
    |
    |-------------------------------------------|
    |----------------------11-10-11---13__/16---|
    |12-11-12--------------12-11-12---13__/15---|
    |13-12-13--------------12-11-12---16--------|
    |15-14-15-----------------------------------|
    |-------------------------------------------|

    |---x-----------------------------15-15---------------------15----|
    |-x------------15-___________-----------------------b20--18-------|
    |----------16-----17b19r17p16-17----------------------------------|
    |-------17--------------------------------------------------------|
    |-----------------------------------------------------------------|
    |-----------------------------------------------------------------|

    |-----------------------------------------Wah-Wah-----------------------|
    |----------------------------------------->>>><<<<----------------------|
    |--------------12__\11__\10__\8-----------12-11-12----------------0/----|
    |-13___\12-----12__\9___\6___\5-----------12-11-12----------------/0----|
    |-15___\14--------------------------------13-12-13----------------------|
    |-----------------------------------------------------------------------|

    |----------------------------------6__/8--10__/11__/16__b18__r16----|
    |-6__/8--9__/13__/18__b20__r18--------------------------------------|
    |-------------------------------------------------------------------|
    |-------------------------------------------------------------------|
    |-------------------------------------------------------------------|
    |-------------------------------------------------------------------|
    |
    |-------------------------------------------------------------------|
    |--9_____________/13_______\9---------------------------------------|
    |--------------------------------12________________13________/16----|
    |-10_____________/13_______\10---12________________13________/16----|
    |--8_____________/11_______\8----13________________14________/18----|
    |-------------------------------------------------------------------|

    |----------------------________-------------
    |-20r18p16---18__b21---18b20r18p16--18b21---|
    |-------------------------------------------|
    |-------------------------------------------|
    |-------------------------------------------|
    |-------------------------------------------|

    |------------------------18---|
    |-b20-------------------------|
    |-------------18-17brp15------|
    |-----------------------------|
    |-----------------------------|
    |-----------------------------|
    |
    |--------------------/18------|
    |--9__/13__/16__/20_-/20------|
    |-10__/13__/17__/20_-/20------|
    |-10__/15__/18__/22_----------|
    |-----------------------------|
    |-----------------------------|




    Дискография




    СТАТЬИ


    BY QUEEN INC © 2017