Понедельник, 21.08.2017, 00:11
| RSS
Главная |
Меню сайта

Rambler's Top100



    Play The Game2
     
    #----------------------------------PLEASE NOTE---------------------------------#
    #This file is the author's own work and represents their interpretation of the #
    #song. You may only use this file for private study, scholarship, or research. #
    #------------------------------------------------------------------------------#
    #

    Queen: Play The Game
    bass-tab

    24"
    |-13----\5---5/7-----------7/9-------------17---\---------------4----6---/12-|
    |----------------7---------------5---\---------------------------------------|
    |----------------------5--------------3--------------------3-----------------|
    |------------------------------------------------1---------------------------|

    |-\-----------------------------------------------------15----14--13--14--13-|
    |-----------------9---8--7--6---5---6--\-------------------------------------|
    |--------------------------------------------1-3-----------------------------|
    |--4----6--8------------------------------1----------------------------------|

    |-14--16--17--14--13----\---------------------7------------------------------|
    |-----------------------------5-7-----------7---5---\-----10----10-10--------|
    |------------------------3-------------5-------------3----------------8---\--|
    |---------------------------------5----------------------------------------1-|

    |------------4-----------------------------------------5\-|
    |----------------------------------------9---8--7--5------|
    |--1-2-3----------3---------------------------------------|
    |----------------------3----4----6---8--------------------|

    |------------------------|-------------------------------------------7-8-9--|
    |------------------------|--------------------------------5-----5-----------|
    |------------------------|----------------------1/5---5---------------------|
    |-1--1--1--1--1--1--1--1-|-1--1--1--1--1--1--1------------------------------|

    |------7/8-9--------------------------------|
    |-5-----------------------------------------|
    |---------------3--3--3--5--7\\--3---1------|
    |----------------------------------------3--|

    |-----------------------------------------|-----------------|----|
    |-----------------------------------------|-----------------|-0/-|
    |-----------------------------------------|-----------------|-/0-|
    |-4---6---8-8-7---8-8-7---8-8-7---8-8-7---|-6-6-6-6-6-6-6-6-|----|

    |---------------------------------|-----------------|----|
    |---------------------------------|-----------------|-0/-|
    |---------------------------------|-----------------|-/0-|
    |-5-5-4---5-5-4---5---7---8---5---|-4-4-4-4-4-4-4-4-|----|

    |---------------------------7--------------------5--5/7---7-8-9---\----------|
    |------5-6-7------7-----7-------7----------5-----------------------3---------|
    |-3-------------7---5-------------5------5---3-------------------------3-----|
    |-----------------------------------3-------------------------------------1--|

    |-----5---5-5-4---4-5---/-12--\----------------------------------|
    |---------------------------------------------------------6-8-9--|
    |-3--------------------------------------------------3-----------|
    |-------------------------------4----6-6-6-6-6-6-6-6-------------|

    |-------------9-------------------------7--7-7-7-7-7--7-7--------------------|
    |---9-----9-------9---------7-----7-----------------------5----5-5-5---5-5---|
    |-9---7-------------7-----7-----7---5--------------------------------------5-|
    |---------------------5------------------------------------------------------|

    |-7-----------6-------7----------------------------------------------------|
    |--------------------------------------------------------------------------|
    |-----5-5-4-------4-5------------------------------------------------------|
    |------------------------3---/15\-4-4-4-4-4-4-4-4-6-6-6-6-6-6-6-6-8----5---|

    |-----------7-------------------5-5--------------------------------5---5-5-4--|
    |-------7-------7-------5-5------------------------1-2-3---3-3----------------|
    |---5-------------5---------3---------1---1--------------------3--------------|
    |-5-----------------3-----------------------1---1-----------------------------|

    |-4---4-4-5---12---12-12-12-12-12...-|
    |------------------------------------|
    |------------------------------------|
    |------------------------------------|
    transcribed by Pinter Denes



    Дискография




    СТАТЬИ


    BY QUEEN INC © 2017