Понедельник, 23.10.2017, 14:35
| RSS
Главная |
Меню сайта

Rambler's Top100



    Princes of the Universe
     
    Princes of the Universe
    Written by: Freddy Mercury

    1a)We're the Princes of the uni - verse
    D------------5-------------------/10--------------------
    A------------5-------------------/10--------------------
    E------------3-------------------/8---------------------
    bend slightly, then
    rest


    1b)Fighting to ...
    Gtr 1:
    G--7---------------------------------------------5------
    D--7-------------------------5-------------------5------
    A--5-------------------------5-------------------3------
    E----------------------------3--------------------------

    Gtr 2:tremolo picking(slightly angle pick while picking each note many times)
    E-24---\23----\22-fade out------------------------------
    B-------------------------------------------------------

    YEAH!

    2a)
    Gtr 1:
    G--4-----r------4-----r---------------------------------
    D--4-----e------4-----e---------------------------------
    A--2-----s------2-----s---------------------------------
    E--------t------------t---------------------------------


    Gtr 2:
    E-------------------------------------------------------
    B-------------------------------------------------------
    G--14b16-14b16-14b16-14b16------------------------------
    D-------------------------------------------------------

    Gtr 3:
    E-------------------------------------------------------
    B--14b15-14b15-14b15-14b15------------------------------
    G-------------------------------------------------------

    2b)
    E-------------------------------------------------------
    B-------------------------------------------------------
    G--14b16-14-13-12-11-10-9-8-6h7p6~~-------------------------
    D-------------------------------------------------------
    A-------------------------------------------------------
    E-------------------------------------------------------

    3) and here we belong.. survival
    G--6\-------------6\--------------6\--------------------
    D--6\-------------6\--------------6\--------------------
    A--4\-------------4\--------------4\--------------------
    E-------------------------------------------------------

    4)..future of u all..(tremolo picking again - pick
    very fast)
    D-------------------------------------------------------
    A-------------------------------------------------------
    E----------2222222222222222222--------------------------

    5a)..No man can understand..my power ...
    E-------------------------------------------------------
    B-------------------------------------------------------
    G-------------------------------------------------------
    D--5----------------------/7----------------------------
    A--5----------------------/7----------------------------
    E--3----------------------/5----------------------------

    5b)
    Am C
    Young man you will go far..Fly the m...

    5c)..With your sword..Gotta past the test
    E-------------------------------------------------------
    B-------------------------------------------------------
    G-------------------7-5---------------------------------
    D---7---------------7-5---------------------------------
    A---7---------------5-3---------------------------------
    E---5---------------------------------------------------

    6)...people talk about you, u hear it every day...
    just repeat the C5 chord alot(G-5,D-5,A-3)
    then slide up to D5

    7)yeh..yeh
    same as Gtr 1 in 2a

    SOLO:
    Not really sure about this either, alot of flange,
    tremolo picking (again!) and hitting the 12th fret
    on the D-string as the main spot, then at the end
    sliding from there.

    That's all for now. Please email me with your opinion
    on this tab, especially if you have some changes, at
    jaqq_lt@yahoo.com



    Дискография




    СТАТЬИ


    BY QUEEN INC © 2017