Понедельник, 26.06.2017, 04:55
| RSS
Главная |
Меню сайта

Rambler's Top100



    Rhapsody (solo) Тип: табулатура


    #-----------------------------------------------------------------------------#
    #-- File created with Instab - http://www.pconline.com/~smcarey/instab.html --#
    #-----------------------------------------------------------------------------#

    Author/Artist: Queen
    Title: Bohemian Rhapsody (solos 1&2)
    Transcribed by: Total Guitar Magazine
    Email: totalguitar@futurenet.co.uk

    --------------------------------8--10-11-8-10-11b13b11-10-13-15-16-18b20b18---
    --------------11v-8---11b13---x-----------------------------------------------
    ---10b12b10p8---------------x-------------------------------------------------
    -8----------------------------------------------------------------------------
    ------------------------------------------------------------------------------
    ------------------------------------------------------------------------------


    -16-15-16-15h16p15----15-------------------------------------------------15---
    -------------------18----18-16-15-16-15h16p15----15-------------15-16-18------
    ----------------------------------------------17----17-15v15-17---------------
    ------------------------------------------------------------------------------
    ------------------------------------------------------------------------------
    ------------------------------------------------------------------------------


    -16-18----------------15-16-18-20v-10-11-8-10-11-8-10-11b13-----------13v-----
    -------------15-16-18---------------------------------------------------------
    -------15-17------------------------------------------------10-12-13v-----13--
    ------------------------------------------------------------------------------
    ------------------------------------------------------------------------------
    ------------------------------------------------------------------------------


    ------------------------------------------------------------------------------
    -14-14-14-14-14\--------------------------------------------------------------
    -----------------6h7p6--------------------------------------------------------
    -----------------------7------------------------------------------------------
    ------------------------------------------------------------------------------
    ------------------------------------------------------------------------------
    End Of Solo 1

    ----------------6-----------------------------------10/15-14-15-17-17b18------
    -----8-11-----6--------8b13b11----------------8-9-8----------------------13---
    ---8--------7--------8---------7-8-7-10-8v-10---------------------------------
    -8--------8-------10----------------------------------------------------------
    ------------------------------------------------------------------------------
    ------------------------------------------------------------------------------


    ------------------------------------------------------------------------------
    -13/15\11-13-13/15\11---------------------------------------------------------
    ------------------------------------------------------------------------------
    ------------------------------------------------------------------------------
    ------------------------------------------------------------------------------
    ------------------------------------------------------------------------------
    End Of Solo 2



    Дискография




    СТАТЬИ


    BY QUEEN INC © 2017