Среда, 13.12.2017, 02:36
Привет!Гость | RSS
Главная | | Регистр | Вход
Меню сайта



Rock It1
 
#----------------------------------PLEASE NOTE---------------------------------#
#This file is the author's own work and represents their interpretation of the #
#song. You may only use this file for private study, scholarship, or research. #
#------------------------------------------------------------------------------#
#

Queen: Rock It

solo

2'32"
|--------------------------------------------(2)---------|
|--------------------------------------------------------|
|-----------------------------------------2b---4---5bb7--|
|---------------------------------2---4------------------|
|-------------------2---3---3h4--------------------------|
|-2----2---2--trD----------------------------------------|

|--------------------------------------------------------------------------|
|-2---52-2--52-25-52-252525b7vvr5252---------------------------------------|
|-------5-0---5-----5---------------54242------------2b4--2-------4---4-2--|
|----------------------------------------42-------------------42--4---4-2--|
|------------------------------------------40--302--------------4----------|
|--------------------------------------------------------------------------|
Note: use many pull off and hammer on




Дискография




СТАТЬИ


BY QUEEN INC © 2017