Четверг, 27.04.2017, 12:06
| RSS
Главная |
Меню сайта

Rambler's Top100



    Sail Away Sweet Sister1
     
    #----------------------------------PLEASE NOTE---------------------------------#
    #This file is the author's own work and represents their interpretation of the #
    #song. You may only use this file for private study, scholarship, or research. #
    #------------------------------------------------------------------------------##
    From: dpinter@eik.bme.hu (Pinter Denes)
    Subject: two QUEEN bass-tabs & one trick

    QUEEN: SAIL AWAY SWEET SISTER Brian May,1979
    bass-tab. THE GAME
    G|-14h16------|-14h16------|-16---------|----16h18---|-16--------|-----------|
    D|------------|---------16-|------------|---------16-|-----14----|-17-16-----|
    A|------------|------------|------------|------------|-----------|-------14--|
    E|------------|------------|------------|------------|-----------|-----------|


    G-|------------|------------|------------|------------|
    D-|------------|------------|------------|------------|
    A-|-14---------|------------|-14---------|-----14\--4-|
    E-|------------|------------|------------|------------|


    G-|------------|------------|------------|------------|
    D-|------------|------------|------------|------------|
    A-|-5----------|------------|------------|------------|
    E-|-------2-2--|-3-----4-4--|-5----55-5--|-5-----55---|


    G-|------------|------------|------------|------------|
    D-|------------|------------|------------|----------4-|
    A-|-5-5-789-9\-|------------|------------|--------5---|
    E-|------------|-3-----4-4--|-5----55-5--|-5----------|


    G-|--16-16-16-16|--16-161819--|---16--------|-------------|
    D-|-------------|-----------16|-16----14-14-|-17--16------|
    A-|-------------|-------------|-------------|---------14--|
    E-|-------------|-------------|-------------|-------------|


    G-|---16-16-16-16-16-161819---|-----16------|-------------|
    D-|-------------|----------16\|----16--1414\|-5--4--------|
    A-|14-----------|-------------|-14----------|-------2--4--|
    E-|-------------|-------------|-------------|-------------|


    G-|-----2------|------------|------------|------------|
    D-|-0----0-----|------------|------------|------------|
    A-|------------|------------|------------|------------|
    E-|-------2-2--|-3-----4-4--|-5---55--5--|-5----55--55|


    G-|------------|------------|------------|--------19\-|
    D-|------------|------------|------7-----|------------|
    A-|-5-5\-------|------------|------------|------5-----|
    E-|-------2-2--|-3-----4-4--|-5---5----5-|-5----------|


    G-|-7--9--7/9/11--12--13--14-15-16--17--19-16------|
    D-|------------------------------------------------|
    A-|-------------------------------------------17\3-|
    E-|------------------------------------------------|


    G-|------------|------------|------------|------------|
    D-|------------|------------|------------|------------|
    A-|-5----------|------------|------------|------------|
    E-|-----012-2--|-3----34-4--|-5----55-5--|05-5--55--55|


    G-|------------|------------|------------|------------------|
    D-|------------|------------|------------|------------------|
    A-|-5----------|------------|------------|-------5-----2--0-|
    E-|-------2-2--|-3-----4-4--|-5-----5-5--|-5--------2-------|


    G-|------------|------------|------------|------------|
    D-|------------|------------|------------|------------|
    A-|-5---789-9\-|------------|------------|------------|
    E-|------------|-3-----4-4--|-5-----5-5--|-5----5-5-55|


    G-|------------|------------|------------|------|
    D-|------------|------------|------------|------|
    A-|-5---789-9\-|------------|------------|------|
    E-|------------|-3-----4-4--|-5-----5-5--|-5----|


    G-|------------|------------|-16----18h19|18------18--|16------16--|
    D-|-16----16/18|18----------|------------|------16--16|------16--16|
    A-|------------|------------|------------|------------|------------|
    E-|------------|------------|------------|------------|------------|


    G-|-18----18/19|-19---------|-----7------|-------4--4-|-2----------|
    D-|------------|-------16/17\16-----9\-4\|------4--4-4|------2-----|
    A-|------------|------------|------------|-2----------|------------|
    E-|------------|------------|------------|------------|------------|

    gradual fade out
    G-|------------|------------|------------|------------|---------76-|
    D-|------------|------------|-----4h5---4|-----------7|-9---------9|
    A-|-2----------|-2---4-5--4-|-2----------|-2--------9-|------------|
    E-|---------2/3|------------|------------|------------|------------|


    G-|----------------------|
    D-|-7--7-7h9-7-----------|
    A-|---9--------9-7-5-4-2-|
    E-|----------------------|



    Дискография




    СТАТЬИ


    BY QUEEN INC © 2017