Вторник, 21.11.2017, 11:03
Привет!Гость | RSS
Главная | | Регистр | Вход
Меню сайта

Rambler's Top100



    Saved Our Queen Тип: табулатура


    This is my 1st tab i have done

    I tried my hardest i think i have got it right

    it sounds good to me

    give it a go



    God save our gracious Queen...
    |-------------------|-------------------|-------------|
    |-------------------|-------------------|-------------|
    |-------------------|-11-11-12-11-------|-------------|
    |-12-12-14-11-12-14-|-------------14-12-|-14-12-11-12-|
    |-------------------|-------------------|-------------|
    |-------------------|-------------------|-------------|

    ...Send her victorious....
    |-------------|-------------------|-------------------|
    |-------------|-------------------|-------------------|
    |-------11-12-|-14-14-14-14-12-11-|-12-12-12-12-11----|
    |-12-14-------|-------------------|----------------14-|
    |-------------|-------------------|-------------------|
    |-------------|-------------------|-------------------|

    ...God save our Queen.
    |----------------------|----------------|
    |----------------------|----------------|
    |-12-11-------11-12-14-|-16-12-11-------|
    |-------14-12----------|----------14-12-|
    |----------------------|----------------|
    |----------------------|----------------|


    Well what do u think

    Azza_5




    Дискография




    СТАТЬИ


    BY QUEEN INC © 2017