Понедельник, 23.10.2017, 09:15
| RSS
Главная |
Меню сайта

Rambler's Top100



    Son And Daughter
     
    #----------------------------------PLEASE NOTE---------------------------------#
    #This file is the author's own work and represents their interpretation of the #
    #song. You may only use this file for private study, scholarship, or research. #
    #------------------------------------------------------------------------------#
    #

    Queen: Son and Daughter
    bass-TAB

    riff A
    |---------------|-----------------___7--------------|----|
    |---------------|-----5---75------7/9---75-7-x5-----|-0/-|
    |-7---7---7-----|-7------7----7-----------7-----7-5-|-/0-|
    |---------------|-----------------------------------|----|

    riff B
    |---------------------------------|-----------------___7--------------*
    |---------------------------------|-----5---75------7/9---75-7--5-----*
    |-7-7-5---7-7-5---7-7-5---7-7-5---|-7------7----7-----------7-----7-5-*
    |---------------------------------|-----------------------------------*

    *|------------|
    *|-0/---5-----|
    *|-/0...--7-7-|
    *|------------|

    riff C
    |---------------------------------*
    |-----9(9)----9-9-----9-9-----97--*
    |---------------------------------*
    |-7-7-----7-7-----7-7-----7-7-----*

    *-----------------------------------------------------------------|
    *-----4-4-----4-4------4-4------------7-7-----7-7-----7-7-----76--|
    *-----------------------------------------------------------------|
    *-2-2-----2-2-----2-2------2-3--4-5-5-----5-5-----5-5-----5-5-----|

    riff A
    riff B
    riff C

    |-----|-------------------------------|-----------------___7--------------|
    |-----|-------------------------------|-----5---75------7/9---75-7--5-----|
    |-7---|-7--75---7--75---7-7-5---7-7-5-|-7------7----7-----------7-----7---|
    |-----|-------------------------------|-----------------------------------|

    |------------|
    |------------|
    |------------|
    |-7-7-7-7....|

    transcribed by Pinter Denes



    Дискография




    СТАТЬИ


    BY QUEEN INC © 2017