Пятница, 20.10.2017, 19:00
| RSS
Главная |
Меню сайта

Rambler's Top100



    To Fall Тип: басс табулатура


    Hammer to Fall-Queen
    Standard Tuning
    From the Album the Works

    This song is one of their better songs from the 80s. I could see
    this being played at a
    war protest.

    This is fairly easy to play.

    :08 Intro :16 Verse

    G--------------------------------------------------------------------------------------|
    D--------------------------------------------------------------------------------------|
    A--------------------------------------------------------------------------------------|
    E--14\5--5--14\7--5--5--0-2-0-5--5---0--5---------5--5---5--5--5-5--5--5-0--5--5--5--5-|
    :31 Chorus
    G------------------------------------------14-------------------------------------------|
    D-------------7-------------------------------------------------------------------------|
    A------------------------------0/12--12-12----12-12-12-12-12-12-12-12-12-12-12-12-12-12-|
    E--5--5--5-5-----5-5--5--0--5-----------------------------------------------------------|

    G--------------------------------------------------------------------------------------|
    D--------------------------------------------------------------------------------------|
    A--12-12-12-12-12\7--5-4-0-0--9/12-12-12-12-12-12-12-12-12-12-12-12-12-12-12-12-12-12--|
    E--------------------------------------------------------------------------------------|

    G--------------------------------------------------------------------------------------|
    D--------------------------------------------------------------------------------------|
    A--12-12-12-12-12-12-12-12-5-4-0-0-----------------------------------------------------|
    E-----------------------------------12/7--5--5--5--5--5--5--0--5-----------------------|

    Verse 2 :43

    G--------------------------------------------------------------------------------------|
    D----------------------------------------------------7\0-------4-7-4-------------------|
    A--------------------------------------------------------------------------------------|
    E--5--5--0-2-0-5--5--5--5--0--5--5--5--5--5--0-5--5------0--5--------------------------|

    Chorus 1:10
    G----------------------------------------------7\4-------------------------------------|
    D--7-7-7-7-7-7-7-7-7-7-7-7-7-7-7-7-7-7-7-7-7-7--------------4/7--7-7-7-7-7-7-7-7-7-7-7-|
    A--------------------------------------------------5-4-0-0-----------------------------|
    E--------------------------------------------------------------------------------------|

    G------------------------7\4-----------------------------------------------------------|
    D--7-7-7-7-7-7-7-7-7-7-7--------------4/7--7-7-7-7-7-7-7-7-7-7-7-7-7-7-7-7-7-7-7-7-7-7-|
    A----------------------------5-4-0-0---------------------------------------------------|
    E--------------------------------------------------------------------------------------|
    Interlude 1:31
    G---------------------------------------------------------------------------------------|
    D--7\4----------------------------------------------------------------------------------|
    A------5-4-0-0--------------------------------------------------------------------------|
    E---------------2/5--5--5--5--5--5--5--0--5--0--0-0-0--0-0-0-2--2-2-2-2-2-4-4-4-4-4-4-4-|

    G----------------------------------------------------------------------------------------|
    D-----------------------5--4--5----------------------4---------------6-6-----------------|
    A----------------5---------------5--7------------------------------------------------5-7-|
    E--4-5-5-5-5-5-5----5-----------------0--0--0-0-0-2-----2-2-2-4---4-4----4-4-4-5--5-5----|

    G--------------------------------------------------------------------------------------|
    D----------------6-6-6-6-6-6-6-6-7-7-7-7-7-7-7-7/12121212121212129\0-------------------|
    A--7-7-7-7-7-7-7-----------------------------------------------------------------------|
    E--------------------------------------------------------------------------------------|

    Guitar Solo 1:58
    G---------------------------------------------------------------------------------------|
    D----------------------------------------------------------4-6--7-7-7-7-7-7-7-7-7-7-7-7-|
    A-----------------------------------------------5-4-0-0--7------------------------------|
    E--5--5--5-5-5-5-5-5-5-5--5-5-5-5-5-5-5-5-5-5-5-----------------------------------------|

    G----------------------------------7\4-------------------------------------------------|
    D--7-7-7-7-7-7-7-7-7-7-7-7-7-7-7-7-----------------------7-----------------------------|
    A--------------------------------------5-4-0-0--5-4-0-0-----5-4-0-5-4-0--5-------------|
    E--------------------------------------------------------------------------------------|

    Verse 2:19
    G--------------------------------------------------------------------------------------|
    D--4-7-7-7-7-7-7-7-7-7-7-7-7-7-7-7-7-7-7-7--7-7-7--7-7-7-7-7-7-7-7-7-7-7-7-7-7-7-7-----|
    A--------------------------------------------------------------------------------------|
    E--------------------------------------------------------------------------------------|
    Chorus 2:33
    G---------------------------------------------------------------------------------------|
    D--7-7-7-7-7-7-7-7-7-7-7-7-7-7-7-7-7-7-7-7-7-7-7-7--------------------------------------|
    A--------------------------------------------------0--0-0-0-0-0-0-0-0-0-0-0-0-0-0-0-0-0-|
    E---------------------------------------------------------------------------------------|

    G--------------------------------------------------------------------------------------|
    D-------------------------------------------------------6-7-7-7-6-7--7-7-7-6-7-7-7-----|
    A--0-0-5-4-0-0--------------------------5-4-0-0--0-0-0---------------------------------|
    E---------------5-5-5-5-5-5-5-5-5-5-5-5------------------------------------------------|

    G---------------------------------------------------------------------------------------|
    D--6-7--7-7-7-6-7-7-7-6-7--7-7-7--------------------------------------------------------|
    A--------------------------------5-4-0-0--0-0-------------------------------------------|
    E---------------------------------------------5-5-5-5--5-5-5--5-5-5-5--5-5-5--5-5-5-5-5-|

    G--------------------------------------------------------------------------------------|
    D---------------------7-7-7-7-7-7-7-7-7-7-7-7-7-7-7-7-7-7-7-7-7-7-7-7------------------|
    A--------5-4-0-0--0-0-------------------------------------------------5-4-0-0--0-0-----|
    E--5-5-5-------------------------------------------------------------------------------|

    G---------------------------------------------------------------------------------------|
    D---------------------------------------------------------------------------------------|
    A---------------------------------------------------------------------------------------|
    E--5-5-5-5-5-5-5-5-5-5-5-5-5-5-5-5-5-5-5-5-5-5-5-5-5-5-5-5-5-5-5-5-5-5--5--5--5--5--0-2-|

    G---------------------------------------------------------------------------------------|
    D------------------------------------------------------------------------------------19-|
    A------------------------------------------------------5-4------------------------19----|
    E--0-5--5--5-0--5--5/12\--5--5--5--5--0-2-0-5-5--5/12\-----5-5-5-5-5-5-5-5-5-5/17-------|

    G--------------------------------------------------------------------------------------|
    D--19----------------------------------------------------------------------------------|
    A-----19\0-0---------------------------------------------------------------------------|
    E--------------------------------------------------------------------------------------|

    PLEASE RATE!!




    Дискография




    СТАТЬИ


    BY QUEEN INC © 2017