Четверг, 24.08.2017, 13:31
| RSS
Главная |
Меню сайта

Rambler's Top100



    Try Suicide Тип: басс табулатура


    GROOVE away the POSITIVE way!!!

    1234 1

    Verse-play twice
    G----------------------------------|
    D----------------------------------|
    A----------------------------------|
    E-7--7-8-9-10--7-7--7-8-9-10-------|

    Bridge:Dont do it
    G---------------------------------------------|
    D---------------------------------------------|
    A----------------------------------------3----|
    E--5-3-5-----5-3-5----5-3-5-5-3-5--5-3-5---5--|

    Chorus:Don't try suicide
    G-----------------------|
    D-----------------------|
    A--5-5------------------|
    E------3-3-3-3-5-5------|

    G-------------------|
    D-------------------|
    A--5-5--------------|
    E------3-3-3-1-5-5--|

    G-----------------------------|
    D-----------------------3-----|
    A--5-5-------------1----------|
    E------3-3-3-3-5-5---------3--|

    Verse 2
    G---------------------------------------------------------------------|
    D---------------------------------------------------------------------|
    A---------------------------------------------------------------------|
    E--7--7-8-9-10----7-7--7-8-9-10---7--7-8-9-10----7--7-8-9-10\\\\\\\\--|

    You need HELP (swing)
    G-------------------------------------------------------------------|
    D-------------------------------------------------10-----10-8-7-6-7-|
    A----7--88-10---7-88-10---10-8-7-------------7-88---8---8-----------|
    E--8---------8------------------8--3-5-6-7-8----------7-------------|

    OK OK OK OK
    G--------------------|
    D-7-6--7-6-7--6-7----|
    A--------------------|
    E--------------------|

    Verse 3
    G-------------------------------------------10------------------|
    D---------------------------------------------------------------|
    A---------------------------------------------------------------|
    E--7--7-8-9-10---7-7--7-8-9-10--7--7-8-9-10-----7-7--7-8-9-10---|

    You need HELP (two)-play twice
    G----------------------------------------------|
    D----------------------------------------------|
    A--7--88-10--7-88-10---10-8-7------------------|
    E-8--------8------------------8--3-5-6-7-------|

    G-----------------------------------------|
    D-----------------------------------------|
    A---------------3-2-3-2-3-----------------|
    E-5-3-5-3-5-3-5---------------------------|


    I've givin you the ingredients now grow some funk of your own omego

    whatchu say!!!???
    im the
    Funk Master DC




    Дискография




    СТАТЬИ


    BY QUEEN INC © 2017