Пятница, 23.06.2017, 06:33
| RSS
Главная |
Меню сайта

Rambler's Top100



    Two Legs Тип: басс табулатура


    Death on Two Legs-Queen
    A Night at the Opera
    Standard Tuning

    This song is cool because it blends metal with classical piano.
    The beginning will scare
    people. PLEASE RATE

    :17
    G---------------------------------------------------------------------------------------|
    D--5---------5--------5--------5--------5-------5--------5--------5---------------------|
    A----5---------4--------5--------4--------5-------4--------5--------4-------------------|
    E---------------------------------------------------------------------------------------|

    G-----------------------------------|
    D--5---------5--------5--------5----|
    A----5---------4--------5--------4--|
    E-----------------------------------|...etc etc. Do that till you get to the part with
    like the scream.

    1st Solo (Clean)
    :46
    G--19-18h19----4-----4-3----2----1------------------------------------------------------|
    D------------------4------4------------0-4-5--6---4---3---------------------------------|
    A------------------------------------2----------5---4-----------------------------------|
    E--------------------------------------------------------2-2-2-2-2-2-2-2--3-3-3-3-3-3-3-|

    G---------------------------------------------------------------------------------------|
    D---------------------------------------------------------------------------------------|
    A---------------------------------------------------------------------------------------|
    E-3--2-2-2-2-2-2-2----------------------------------------------------------------------|

    1st Verse
    G---------2-4-----2-4----4-------0----0----0-----0--------------------------------------|
    D-------4-------4------------0------0----0-----0------4----------4-----4-4-4-4-4-4-4-4--|
    A--2--2--------------------2---2-------------------------4----------4-------------------|
    E------------------------------------------------------------2-2------------------------|

    G---------------------------------------------------------------------------------------|
    D-------------------------------5-4---5-4---4-------5-----5-----5------5----------------|
    A--5-5---5---3-5-5---5--5---3-5-----5-----5---5---------5-----5-----3-------------------|
    E----------5--------------5---------------------3---------------------------------------|

    Chorus 1:34
    G--5--4---4---4-3----2-1------------------------19-18-19---------3----2-----------------|
    D--8--------4------4---------0-4-5-6----4----3-----------------4----4-------------------|
    A--------------------------2----------5----4------------------------------0--0--0-------|
    E---------------------------------------------------------19-----------------------4-5--|

    G---------------------------------------------------------------------------------------|
    D---------------------------------------------------------------------------------------|
    A--5-5--5--5--5--------------------------2--2--2--2--2--2--2--2-1-0--0--0-----0-0--0----|
    E----------------2--2--2--2--2--2--2--2-----------------------------------2-3-----------|

    G----------------------------------------------------------------------------------------|
    D----------------------------------------------------------------------------------------|
    A--0-----0-5--5--5----0-5--5--5-4-2-4-2-0-2--------------------------------2--2--2--2--2-|
    E----2-3------------3-------------------------2----2--2--2--2--2--2--2--2----------------|

    G---------------------------------------------------------------------------------------|
    D---------------------------------------------------------------------------------------|
    A--2--2--2-1-0--0--0-----0-0--0--0-----0-5--5--5-----0----------------------------------|
    E--------------------2-3-----------2-3-----------2-3------2-2-2-0-2----2-2-2-9-2--------|

    Guitar Solo 2 (Heavyish) 2:30

    G----------0-2---------------------------------------------------------------------------|
    D--0--0--0-----0-0-0--------------------5-7--------------------------5-7-----------------|
    A--------------------4-2--0--4--5--5--5-----5--5-5-4-2--0--4-5--5--5-----5--5-5-4-2--4-5-|
    E----------------------------------------------------------------------------------------|

    G---------------------------------------------------------------------------------------|
    D---------------------------------------------------------------------------------------|
    A----------0----------------------------------------------------------------------------|
    E--5---7-9----7-9-0--2-2-2-0-2----------------------------------------------------------|

    Verse 2 2:45 Fill\/
    G----------2-4------2-4---------0----0---15-15-14-12-10----10---------------------------|
    D--------4--------4---------0------0--------------------12----12-10-8-----------4---4-4-|
    A--2---2------------------2---2----------------------------------------9----------4-----|
    E-------------------------------------------------------------------------9-2-2---------|

    G--------------------------------------------------------------------------------------5-|
    D--4-4-4-4-4-4-------------------------------5-4---5-4---4---------5-----5----5------5-8-|
    A--------------5--5--5---3-5--5--5--5---3-5------5-----5---5-----3----5-----5----5-3-----|
    E----------------------5--------------5----------------------3---------------------------|

    G--4-----4-3----2-----2-1------------------19-18-19-------------------------------------|
    D------4------4-----4---------0-4-5----4------------------------------------------------|
    A---------------------------2--------5---------------2------2-1----0---0--0--0-----5-5--|
    E---------------------------------------------------------2------2-------------4-5------|

    Chorus 3:12
    G---------------------------------------------------------------------------------------|
    D---------------------------------------------------------------------------------------|
    A--5--5--------------------------2--2--2--2--2--2--2--2-1-0--0--0-----0-0--0--0-----0-5-|
    E--------2--2--2--2--2--2--2--2-----------------------------------2-3-----------2-3-----|

    G---------------------------------------------------------------------------------------|
    D---------------------------------------------------------------------------------------|
    A--5--5-----0---------------------------------------------------------------------------|
    E-------2-3-----------------------------------------------------------------------------|





    Дискография




    СТАТЬИ


    BY QUEEN INC © 2017