Вторник, 21.11.2017, 10:51
Привет!Гость | RSS
Главная | | Регистр | Вход
Меню сайта

Rambler's Top100



    Want It All (intro) Тип: табулатура


    This is the intro from "The Miracle" album
    E |-------------------------3---------3-------------------------------|
    B |-------------------------3----3----3-------------------------------|
    G |-4----2----4-----2h4-4---0----2----0-----0h2-2---2----0----2-------|
    D |-4----2----4---2-2h4-4---0----0----0-----0h2-2---2----0----2-------|
    A |-2----0----2---0-0---2---x----x----x--0--0---0---0----0----0-------|
    E |-------------------------3----2----3-------------------------------|
    Pm pm
    E |---------------------------------3-3-------------------------------|
    B |---------------------------------3-3-------------------------------|
    G |---2h4-4---4-x-x-4-x-2----4-4----0-0----2-2----4-4p2---4-4----4-4--|
    D |-2




    Дискография




    СТАТЬИ


    BY QUEEN INC © 2017